• Song:

    Private Life

  • Artist:

    Grace Jones

  • Album:

    Colour Collection (Inte...

-------------------------------------------------------------------------------
			     PRIVATE LIFE - Grace Jones
-------------------------------------------------------------------------------

Tabbed By : j.easby
e-mail: j.easby@ntlworld.com

www.theworldofgracejones.com

Tuning: EADG

Another great simple bass line from the Jones. Its a take on the old Pretenders early 
song. She improves every song she works on.

Three Riffs, Slightly different. Listen for the subtle changes and the odd slide.

G|-----------------------------------------------|
D|-----------------------------------------------|
A|------------9-9-9-9-7-5------------------------|
E|----0-5-7---------------0-5-0------------------|

G|-----------------------------------------------|
D|-----------------------------------------------|
A|------------9-9-9-9-7-5------------------------|
E|----0-5-7---------------0-5-7------------------|

G|-----------------------------------------------|
D|-----------------------------------------------|
A|------------9-9-9-9-7-5----------7\------------|
E|----0-5-7----------------0-5-7-----------------|



| /  slide up
| \  slide down
| h  hammer-on
| p  pull-off
| ~  vibrato
| +  harmonic
| x  Mute note
===============================================================================
Show more