• Song:

    Pull Up To The Bumper

  • Artist:

    Grace Jones

  • Album:

    Colour Collection (Inte...

------------------------------------------------------------------------------
			     PULL UP TO THE BUMPER - Grace Jones

-------------------------------------------------------------------------------

Tabbed By : j.easby
e-mail: j.easby@ntlworld.com

Tuning: EADG

www.theworldofgracejones.com

Wow, I am the first to tab the fabulous Grace Jones! Great bass lines in all her songs. 
If only I was any where near as good!!!

Introduction

G|------------5-7-----5-7-----7------7-----7--------|
D|--------5-7-----5-7-----5-7---5-7----5-7----------|Let A5s ring
A|---5~---------------------------------------5~----|x2 at introduction
E|--------------------------------------------------|

Main Riff
G|--------------------------------------------------|
D|--------------------------------------------------|
A|---5---3-4-5---------------3-4-5-345--------------|
E|------------5-4-3--1-2-3------------5-4-3--1-2-3--|

G|--------------------------------------------------|
D|--------------------------------------------------|Etc
A|---3-4-5-345--------------3-4-5-345---------------|
E|-------------5-4-3-1-2-3--------------------------|

Interlude

G|----p7-p7-p4-p4-p7-p7-p4-p4-p7-p7-p4-p4-p7-p7-----|
D|--------------------------------------------------|
A|---5--5--2--2--5--5--2--2--5--5--2--2--5--5-------|
E|--------------------------------------------------|



| /  slide up
| \  slide down
| h  hammer-on
| p  pull-off
| ~  vibrato
| +  harmonic
| x  Mute note
===============================================================================
Show more