• Song:

    Im Your Captain Closer To Home

  • Artist:

    Grand Funk Railroad

sponsored links
Tabbed by thenextclapton
  
ho= hammer on

po= pull off

/= bar line

Standard Tuning
intro:
e------------------------------/----------------------
B----------------------0ho1po0-/-------------------0--
G-----7---5---4---0ho2---------/--7---5---4---0ho2----
D---0---0---0---0--------------/0---0---0---0---------
A------------------------------/----------------------
E------------------------------/----------------------

repeat once then play:
   D                                 C/G
e--2-------------------------------/-3----------------
B--3-(let ring for entire measure)-/-3-(ditto)--------
G--2-------------------------------/-0----------------
D--0-------------------------------/-2----------------
A----------------------------------/-3----------------
E-----------------------------------------------------

repeat 4x but on the 3rd and 4th time use the stick instrument that resides by the bridge to make the chords have a wavy sound.
   D          C/G       D         C/G
e--2--0-0-2---3-3-3-3-/-2--0-0-2--3-3-3-3-------------
B--3--3-3-3---3-3-3-3-/-3--3-3-3--3-3-3-3-------------
G--2--2-0-2---0-0-0-0-/-2--2-0-2--0-0-0-0-------------
D--0--0-0-0---2-2-2-2-/-0--0-0-0--2-2-2-2-------------
A-------------3-3-3-3-/-----------3-3-3-3-------------
E---------------------/-------------------------------
   everybody            listen to me
etc.

For the slower part strum chords

D                        C/G
I'm getting closer to my home..

That's it. Use strumming, rythm, tempo, etc. to your own desire.  Enjoy!
Show more
sponsored links
sponsored links