• Song:

    China Cat Sunflower

  • Artist:

    Grateful Dead

  • Album:

    Steppin' Out with the G...

This is Bobs correct part: i blended 2 of the incorrect tabs together to create the correct one-

E----------------------|------------------|
B---12--13p12----------|--12h13--15--15---|
G--------------14--12--|------------------|
D----------------------|------------------|
A----------------------|------------------|
E----------------------|------------------|

E----------------------|-----13------15---17---19---|
B---12--13p12----------|---13------15---------------|
G--------------14------|-14------16-----------------|
D----------------------|----------------------------|
A----------------------|----------------------------|
E----------------------|----------------------------|

E----------------------|------------------|
B---12--13p12----------|--12h13--15--15---|
G--------------14--12--|------------------|
D----------------------|------------------|
A----------------------|------------------|
E----------------------|------------------|

E----------------------|-----13------15---17---15---|
B---12--13p12----------|---13------15---------------|
G--------------14------|-14------16-----------------|
D----------------------|----------------------------|
A----------------------|----------------------------|
E----------------------|----------------------------|

Long live the DEAD
Show more