• Song:

    Dark Star

  • Artist:

    Grateful Dead

  • Album:

    Two From the Vault

Intro
E------------|------------|-----------------------------------|
B------------|------------|-----------------------------------|
G----------7-|---------7--|-----------------------------------|
D---9p8-9----|-9p8-9------|-5h7--5--7--5-----------5-----5-7--|
A------------|------------|---------------7-5h7------7--------|
E------------|------------|-----------------------------------|

E---------2--3--5-|--------2--3--5-5^7--5---------------------|
B---3h5-----------|--3h5--------------------------------------|
G-----------------|-------------------------------------------|
D-----------------|-------------------------------------------|
A-----------------|-------------------------------------------|
E-----------------|-------------------------------------------|

E--------5---3-5p3-----------|----5---3-5p3--7--5--3----------|
B--------5-----------5--3----|----5---------------------------|
G--------------------------5-|-2------------------------------|
D----------------------------|--------------------------------|
A----------------------------|--------------------------------|
E----5-----------------------|--------------------------------|

Verse Line
E-----------------------------------------------------------|
B---3^5---5^3---2h3--2--------------------------------------|
G-------------------------2h4--2--0---0-----0--2--0---------|
D----------------------------------------------------2------|
A-----------------------------------------------------------|
E-----------------------------------------------------------|
    Dark  Star  Crashes   pouring its light into ashes


A  G      A      G A       G       
      A     G
Dark star crashes, pouring its light into ashes
A   G  A      G     A      G       
           A    G
Reason tatters, the forces tear loose from the axis
A    G       A      G
Search light casting
    A             G         A        G
for faults in the clouds of delusion
A           Asus4  A
Shall we go,

E------------------------------0---------------------0-------|
B---2--3--5--3--2--3--2--0-----0---------------------2-------|
G---------------------------0--0---------------------2-------|
D---2--4--5--4--2--4--2--0-----2---------------------2-------|
A------------------------------2---------0--2-2p0-2--0-------|
E------------------------------0---0-2-3-------------0-------|
   You and I while we can
E---------------------------------0--------------|
B---2--3--5--3--2--3--2--0--------0--------------|
G---------------------------0-----0--------------|
D---2--4--5--4--2--4--2--0----4---2--------------|
A---------------------------------2---------0--2-|
E---------------------------------0---0-2-3------|
  The transitive night fall of diamonds


Mirror shatters in formless reflections of matter
Glass hand dissolving in ice petal flowers revolving
Lady in velvet recedes in the nights of good-bye
Shall we go, you and I while can
Through the transitive nightfall of diamonds
Show more