Title;Soon Forward
Artist;Gregory Isaacs
Tabbed by; mattydread2@yahoo.com

riff 1
G--5---------------5-------------------|
D----5-7-5-7---------5-7-5-7-----------|
A--------------5-------------5---5555--|
E--------------------------------------|


riff 2
G--------------------------------------|
D---------5--------------5-------------|
A-------3---3-5----5---3---3----5---5--|
E----------------5----------------5----|

simple as that, nice easy pleasing riddim thru out.
Show more