Grinspoon – 1000 Miles

Guitar Intro, then come in:

Intro x4
G|----------------------------------------------------------------------|
D|----------------------------------------------------------------------|
A|--------------2p0-0-3p0-0---------------------------------------------|
D|-0-3p0-3p0-00-------------3-------------------------------------------|


Verse
G|----------------------------------------------------------------------|
D|----------------------------------------------------------------------|
A|-------------------2p0-0-3p0-0------------------------2p0-0-3p0-0-----|
D|-0----0-3p0-3p0-00-------------3--0------0-3p0-3p0-00-------------3---|
  ^                                 ^

g|----------------------------------------------------------------------|
d|----------------------------------------------------------------------|
a|-------------------2p0-0-3p0-0------------------------2p0-0-3p0-0-----|
d|-0----0-3p0-3p0-00-------------3--0------0-3p0-3p0-00-------------3---|
  ^                                ^

Chorus
G|----------------------------------------------------------------------|
D|----------------------------------------------------------------------|
A|-3-2-1----------------2p0-0-3p0-0-----2-3----------------2p0-0-3p0-0--|
D|--------0-3p0-3p0-00--------------3-5-------0-3p0-3p0-00--------------|
  ^                                  ^

G|----------------------------------------------------------------------|
D|----------------------------------------------------------------------|
A|-3--2-1---------------2p0-0-3p0-0------2-3----------------------------|
D|---------0-3p0-3p0-00-------------3-5---------------------------------|
  ^                                    ^
Show more