Grinspoon - Black Tattoo

Tuning: Drop D


g-------------------------------------------------------------|
d-------------------------------------------------------------|
a-------------------------------------------------------------|
d-12s-2-5-2-7-8-0-0-2-5-2-7-8-0-0-2-5-2-7-8-0-0-2-5-2-7-8-0-0-|


g----------------------------------------------------------------------|
d----------------------------------------------------------------------|
a----------------------------------------------------------------------|
d-2-2-2-2-2-2-0-2--2-2-2-2-2-2-0-2-5--5-5-5-5-5-2-5-5--7-7-7-7-7-5-7-8-|

Chorus 1
g------------------------------------------------------------------------------|
d------------------------------------------------------------------------------|
a------------------------------------------------------------------------------|
d-2-2-2-2-2-2-2-2-5-5-5-5-5-5-5-5-10-10-10-10-10-10-10-10-7-7-7-7-7-7-10h12-12-|

Chorus 2
g---------------------------------------------------------------------------------|
d---------------------------------------------------------------------------------|
a---------------------------------------------------------------------------------|
d-2-2-2-2-2-2-2-2-5-5-5-5-5-5-5-5-10-10-10-10-10-10-10-10-5-6-7-5-6-7-5-6-7-5-6-7-|

tabbed by auditek
Show more