Drop D tuning

Grinspoon-damn straight

Tabbed by: Harry Gibson

Email: rouldo_1992@hotmail.com


INTRO/CHORUS
G|--------------------------------|
D|--------------------------------|
A|---5-3-5-3---5-3---5-3-0--------|
D|-0---------0-----0--------3-2-1-|

VERSE                                                            DECENDING PART
G|------------------------------------|----------------------------------|
D|------------------------------------|----------------------------------|
A|-5-5-5-5-5-5-5-5--------------------|-5-5-5-5-3-3-3-3------------------|
D|-----------------3-3-3-3----6-6-6-6-|-----------------7-7-7-7--6-6-6-6-|

PRE-CHORUS BIT
G|-----------------|
D|-----------------|
A|---------------3-|
D|-5-5-----3-3-----|

CHORUS
G|--------------------------------|
D|--------------------------------|
A|---5-3-5-3---5-3---5-3-0--------|
D|-0---------0-----0--------3-2-1-|

VERSE                                                              DECENDING PART
G|------------------------------------|----------------------------------|
D|------------------------------------|----------------------------------|
A|-5-5-5-5-5-5-5-5--------------------|-5-5-5-5-3-3-3-3------------------|
D|-----------------3-3-3-3----6-6-6-6-|-----------------7-7-7-7--6-6-6-6-|

PRE-CHORUS BIT
G|-----------------|
D|-----------------|
A|---------------3-|
D|-5-5-----3-3-----|

CHORUS
G|--------------------------------|
D|--------------------------------|
A|---5-3-5-3---5-3---5-3-0--------|
D|-0---------0-----0--------3-2-1-|

LINK BIT
G|-------------------------|
D|-------------------------|
A|-------3h5---6p5---2h3p2-|
D|-0-----------------2h3p2-|

BRIDGE PART
G|---------------------------------------------------------------|
D|---------------------------------------------------------------|
A|--5-5-5-5-5-5-5-5----7777--8888--------------------------------|
D|---------------------------------88888888--7777--5555----------|


PRE-CHORUS BIT
G|-----------------|
D|-----------------|
A|---------------3-|
D|-5-5-----3-3-----|

CHORUS
G|--------------------------------|
D|--------------------------------|
A|---5-3-5-3---5-3---5-3-0--------|
D|-0---------0-----0--------3-2-1-|


ENDING
G|-------------------------|
D|-------------------------|
A|-------3h5---6p5---2h3p2-|
D|-0-----------------2h3p2-|

THERE IT IS GUYS HOPE YOU ENJOY IT!
Show more