Title: Explain
Artist: Grinspoon
Bassline

Drop D Tuning (low to high: DADG)

INTRO/VERSE:

G |----------------------------|
D |--2--2--4--2----------------|
A |----------------0--0--2--0--|
D |----------------------------|


CHORUS
Last Time:
G |----------------|------------------||--------------|
D |----------------|------------------||--------------|
A |--3--3----------|-5-5-5-5-5-5-5-5--||-2-2-2-2-2-2--|
D |---------5--5---|------------------||--------------|

ENDING

G |----------------------------|-------------|
D |--2--2--4--2----------------|--2-------2--|
A |----------------0--0--2--0--|------2------|
D |----------------------------|-------------|
Show more