BAND:	   GRINSPOON
SONG:	   NBT
ALBUM:	   Guide To Better Living
TUNING:    (D A D G)
TABBED BY: Jason Starr
(starry_80@hotmail.com)


INTRO A
G|------------------------------------------------------------|
D|------------------------------------------------------------|
A|------------------------------------------------------------|
D|-4444-54--7777-87--4444-54--8888-75-------------------------| X2


INTRO B
G|------------------------------------------------------------|
D|------------------------------------------------------------|
A|------------------------------------------------------------|
D|-4444-54--77------------------------------------------------| X2


PLAY INTRO A	X2


G|------------------------------------------------------------|
D|------------------------------------------------------------|
A|------------------------------------------------------------|
D|-9-9-99910-10-10-101010\7-777-777-777-777/(9)---------------| X2

G|------------------------------------------------------------|
D|------------------------------------------------------------|
A|-----5-------5-5-----5-------5h6p5--------------------------|
D|-4-4---44-44-----4-4---44-44--------------------------------|





*******
  KEY
*******
h     = Hammer-On
p     = Pull-Off
/     = Slide up
\     = Slide down
~     = Let ring
b     = Bend
^     = Bend to
x     = dead note
(?)   = ghost note
   = Harmonics
|*-*| = Repeat
!     = Short, sharp note

S     = Slap
P     = Pop
.     = Mute
PM    = Palm Mute
Show more