-----------------------------------------------------------------------------
			     New Detention - Grinspoon
-----------------------------------------------------------------------------
Tabbed by:
Email:

Tuning: Drop D (DADgbe)
Intro/Verses
e|------------------------------------|
B|------------------------------------|
G|------------------------------------|
D|-0-0-0-0-3-4-5-0-0-0--0-0-0-0-3-4-5-|
A|-0-0-0-0-3-4-5-0-0-0--0-0-0-0-3-4-5-|
D|-0-0-0-0-3-4-5-0-0-0--0-0-0-0-3-4-5-|

Chorus C, Em, G, F, Am
e|-0----0----3----1----0-|
B|-1----0----0----1----0-|
G|-0----0----0----2----1-|
D|-2----2----0----3----2-|
A|-3----2----2----3----2-|
D|-0----0----3----1----0-|

Break
e|----------------------------------------------------------|
B|-15-15-15-15-15-15-14-14-14-13-13-13-13-12-12-12-10-10-9~-|
G|----------------------------------------------------------|
D|----------------------------------------------------------|
A|----------------------------------------------------------|
D|----------------------------------------------------------|

Back to intro
                              
Lost Control
Intro/Main Riff
e|-------------------------------------|
B|-------------------------------------|
G|-------------------------------------|
D|-----------------------5-4-3-0-3-4-5-|
A|-----------------------5-4-3-0-3-4-5-|
D|-fdbk/-0-0-0-0-0-0-0-0-5-4-3-0-3-4-5-|x3

Verses
e|-----------------------------|
B|-----------------------------|
G|-----------------------------|
D|---3---3---3---5-4-3-0-3-4-5-|
A|---3---3---3---5-4-3-0-3-4-5-|
D|-0-3-0-3-0-3-0-5-4-3-0-3-4-5-|

Chorus
e|---------------------|
B|---------------------|
G|---7-------5-5-5-----|
D|-0-7-0-3-3-5-5-5-5-5-|
A|-0-5-0-3-3-3-3-3-5-5-|
D|-0---0-3-3-------5-5-|

Back to Verse

Then(distortion)
e|--------------------------------------------|
B|--------------------------------------------|
G|--------------------------------------------|
D|------------------------------------5/7-5/7-|
A|---------------3-4-5~---------------3/5-3/5-|
E|-0-0-0-0-0-0-0--------0-0-0-0-0-0-0---------|


Gone Tomorrow
Intro
e|----------------------------------------------------------------------|
B|----------------------------------------------------------------------|
G|----------------6-6-6-6-6-6---------------4-4-4-4-4-4-----------------|
D|----------------6-6-6-6-6-6---------------4-4-4-4-4-4-----------------|
A|----------------4-4-4-4-4-4---------------2-2-2-2-2-2-----------------|
D|-0-2-0-2-0-2-0--------------0-2-0-2-0-2-0-----------------------------|

Intro2
e|-------------------------------------------------------------------------|
B|-------------------------------------------------------------------------|
G|---------------7-7-7-7-7-7---------------5-5-5-5-5-5-------3-3-3-3-3-3---|
D|-0-2-0-2-0-2-0-7-7-7-7-7-7-0-2-0-2-0-2-0-5-5-5-5-5-5-0-2-0-3-3-3-3-3-3---|
A|-0-2-0-2-0-2-0-5-5-5-5-5-5-0-2-0-2-0-2-0-3-3-3-3-3-3-0-2-0-1-1-1-1-1-1---|
D|-0-2-0-2-0-2-0-------------0-2-0-2-0-2-0-------------0-2-0---------------|

Verse
e|-10-10--10--10-10-|
B|-10-10--10--10-10-|
G|-10-10--10--10-10-|
D|------------------|
A|------------------|
D|------------------|


Chemical Heart
Intro/main riff/Verses
e|-------------------------------------------|
B|-15----15----15-------13----13----12-------|
G|----14----14----14\12----12----12----12/14-|
D|-------------------------------------------|
A|-------------------------------------------|
E|-0-----------------------------------------|

Chorus
e|--------------------|
B|-7-7/9-9~--5-5/7-7~-|
G|-7-7/9-9~--5-5/7-7~-|
D|--------------------|
A|--------------------|
E|--------------------|

Solo
e|---------------------------------|
B|---------------------------------|
G|---------------------------------|
D|-12~-11~-10~-9~------------------|
A|----------------12---------------|
E|-------------------9-10-11-12----|




Make It Happen
Intro
e|----------------------------|
B|--------10-10--10--10-10-10-|
G|--------10-10--10--10-10-10-|
D|-2-2-2--10-10--10--10-10-10-|
A|-2-2-2----------------------|
D|-2-2-2----------------------|

Main Riff(then after that play again but palm muted)
e|-----------------------------|
B|-----------------------------|
G|-----------------------------|
D|-0-3-5-7-0-3-5-0-3-5-7-0-3-5-|
A|-0-3-5-7-0-3-5-0-3-5-7-0-3-5-|
D|-0-3-5-7-0-3-5-0-3-5-7-0-3-5-|

Chorus
e|---10-10-10---------------|
B|---10-10-10-----5-5-------|
G|---10-10-10-----5-5-------|
D|-0----------2-2-3-3-0-0-0-|
A|-0----------2-2-----0-0-0-|
D|-0----------2-2-----0-0-0-|


Boltcutter
Intro
e|-----------------------|
b|-------10--------------|
g|-7-7-7----7-7-8--------|
D|-----------------------| X3
A|-----------------------|
D|-----------------------|

e|-----------------------|
b|-----------------------|
g|-7-8-8-10-10-10\-------|
D|-----------------------|X1
A|-----------------------|
D|-----------------------|

Pt 2 (X2)
e|-----------------------|
b|-----------------------|
g|-7-5---5-7-5-8---------|
D|-----7-----------------|X3
A|-----------------------|
D|-----------------------|

-----------------------
-----------------------
-7-5-------------------
-----7-8-8-8\---------- X1
-----------------------
-----------------------

CHORUS (X2)

e|-----------------------|
b|-----------------------|
g|-3--5--------3--5------|
D|-3--5--6--8--3--5--1---|
A|-1--3--6--8--1--3--1---|
D|-------6--8--------1---|

Guitar 2 does this on second time

e|-----------------------|
b|-----------------------|
g|-3--5--------10-12-----|
D|-3--5--6--8--10-12-1---|
A|-1--3--6--8--8--10-1---|
D|-------6--8--------1---|

VERSE
CHORUS

BRIDGE
e|-------------------------|
b|-------------------------|
g|-8\7777\6666\5555\4444\3-|
D|-8\7777\6666\5555\4444\3-| X4
A|-6\5555\4444\3333\2222\1-|
D|-------------------------|

e|-----------------------|
b|-----------------------|
g|-3---------------------|
D|-3--3--4--1------------|  X6
A|-1--3--4--1------------|
D|----3--4--1------------|

No Reason
Intro
e|------------------|
B|------------------|
G|-6-6-8-8----------|
D|-6-6-8-8-8b-8b-8\-|
A|-4-4-6-6----------|
E|------------------|

Chorus
e|-0---4-X-4-4-----4-5---|
B|---0-4-X-4-4-----4---5-|
G|-----5-X-6-4h6-6-6-----|
D|-----6-X-6-4h6-6-6-----|
A|-----6-X-4-4-----4-----|
E|-----4-X-4-4-----4-----|

Solo
e|----12--------12---------------------------|
B|-12----12--12----12-12h14p12-10/12---------|
G|-----------------------------------9-9~----|
D|-------------------------------------------|
A|-------------------------------------------|
E|-------------------------------------------|


Killswitch (Drop C)
Intro
D|----------------------------------------------------------|
A|----------------------------------------------------------|
F|----------------------------------------------------------|
C|----------------------------------------------------------|
G|-1~/10-0-12-0-10-0-12-0-12-12-0-10-0-12-0-10-0-12-0-12-12-|
C|----------------------------------------------------------|

Then Main Riff
D|----------------------------|
A|----------------------------|
F|----------------------------|
C|-0-0-0-0-0-0-5-3-5-3-0-3-6\-|
G|-0-0-0-0-0-0-5-3-5-3-0-3-6\-|
C|-0-0-0-0-0-0-5-3-5-3-0-3-6\-|

Chorus
D|-----------------------------------|
A|-----------------------------------|
F|-----------3-3-----2-2-2-----------|
C|-0-6-6-3-5-3-3-8-8-2-2-2-4-4-7-7-7-|
G|-0-6-6-3-5-1-1-8-8-0-0-0-4-4-7-7-7-|
C|-0-6-6-3-5-----8-8-------4-4-7-7-7-|

Solo (Dave Leslie)
Don't Know
Back to intro


1000 Miles
Intro (Banjo)
e|---------------------------|
B|---------------9-----------|
G|-7-10-7-10-7-7---7-10-7-10-|
D|---------------------------|
A|---------------------------|
E|---------------------------|

Then Guitar Intro/Verses
e|-------------------------|
B|-------------------------|
G|-------------------------|
D|-------------------------|
A|-------------2-----------|
E|-0-3-0-3-0-0---0-3-0-3-0-|

Chorus
e|--------------------------------------------------------------|
B|--------------------------------------------------------------|
G|-5-4-3--------------------------5-6-7-------------------------|
D|-5-4-3-----------------------2--5-6-7-----------------------2-|
A|-3-2-1-------------2---------2--3-4-5-------------2---------2-|
E|-------0-3-0-3-0-0---0-3-0-3-0--------0-3-0-3-0-0---0-3-0-3-0-|

Damn Straight

Intro/Main riff/Chorus
e|------|-------------------------------|
b|------|-------------------------------|
G|------|-------------------------------|
D|-BASS-|-------------------------3-2-1-|
A|------|---5-3-5-3---5-3---5-3---3-2-1-|
D|------|-0---------0-----0-----0-3-2-1-|x3


Verse
e|----------------------------------------------------------|
B|----------------------------------------------------------|
G|----------------------------------------------------------|
D|---------------------------------------3-3-3-6-6-6--6-5-3-|
A|---------------------------------------3-3-3-6-6-6--6-5-3-|
D|-3-3-3-3-3-3-6-6-6-6-6-6-5-5-5-5-5-5-5-3-3-3-6-6-6--6-5-3-|
pm . . . . . . . . . . . . . . . . . . . 


Hate
Intro
"woke up to find you weary"
A, G, D. 

"left Hand was in the red room"
Am, A, G, Em

"my my our thoughts were black then"
C, D, G, A

Chorus "And I'll hate you everyday"
Am, C, A, G, C, A, Bm, F, A.



Don't Change
Intro
e|-------------------------|
B|-9~----------------------|
G|----8-10~-----8~---------|
D|-----------10-----8-10~--|
A|-------------------------|
E|-------------------------|


Next Part
e|-------X-X-X-X-X-X-|
B|-------X-X-X-X-X-X-|
G|-7-6-4-X-X-X-X-X-X-|
D|-7-6-4-X-X-X-X-X-X-|
A|-5-4-2-X-X-X-X-X-X-|
E|-------X-X-X-X-X-X-|

e|----------------|
B|----9-0-----9-0-|
G|-10------10-----|
D|----------------|
A|----------------|
E|----------------|

Chorus (Don't Change for you, Don't change a thing for me)
e|---------------------------------------------|------------------|
B|---------------------------------------------|------------------|
G|-5-5-5-7-7-7---------5-5-5-7-7-7---------5/7-|-12h14-14-14-14~--|
D|-5-5-5-7-7-7-7-7-7-7-5-5-5-7-7-7-7-7-7-7-5/7-|------------------|
A|-3-3-3-5-5-5-7-7-7-7-3-3-3-5-5-5-7-7-7-7-3/5-|------------------|
E|-------------5-5-5-5-------------5-5-5-5-----|------------------|
                                          (Play this after the 3rd time)

Outro
e|----------------------------------------------------X----|
B|----------------------------------------------------X----|
G|-5-5-5/7-7-7--5-5-5/7-7-7--5-5-5/7-7-7--5-5-5/7-7-7-X----|
D|-5-5-5/7-7-7--5-5-5/7-7-7--5-5-5/7-7-7--5-5-5/7-7-7-X-7~-|
A|-3-3-3/5-5-5--3-3-3/5-5-5--3-3-3/5-5-5--3-3-3/5-5-5-X-7~-|
E|----------------------------------------------------X-5~-|

| /   slide up
| \   slide down
| h   hammer-on
| p   pull-off
| ~   vibrato
| +   harmonic
| x   Mute note
| b   Bend
| pb  Pre-bend
| br  Bend release
| pbr Pre-bend release
| brb Bend release bend

************************************
Show more