• Song:

    Breaking Down

  • Artist:

    Guilty Innocence

Intro
--------------------------------------------------------------------------------
---------------------------------------------------------------------------------
---------------------------------------------------------------------------------
-9-8---8-9---9-8---8-9---9-8---8-9---9-8------------------------------------------
0----------0-----------0-----------0---------------------------------------------
-----0-----------0-----------0-----------0--------------------------------------

Verse 1 & 2
--------------------------------------------------------------------------------
-------------------------------------------------------------------------------
-------------------------------------------------------------------------------
-3-3-3-3---3-3-3-3---2-2-2-2---2-2-2-2---0-0-0-0---3-3-3-3---2-2-2-2-----------
-3-3-3-3---2-2-2-2---3-3-3-3---2-2-2-2---3-3-3-3---2-2-2-2---3-3-3-3-----------
--------------------------------------------------------------------------------
Chorus
--------------------------------------------------------------------------------
--------------------------------------------------------------------------------
--------------------------------------------------------------------------------
-2-2-2-2-2---0---3-3-3-3-3-3---0---6-6-6-6-6---0---2-2-2---0---------------------
-2-2-2-2-2---0---3-3-3-3-3-3---0---6-6-6-6-6---0---2-2-2---0--------------------
-3-3-3-3-3---0---2-2-2-2-2-2---0---5-5-5-5-5---0---2-2-2---0--------------------

Yeah this is my first tab and you probably havent heard of them but i hope you like it
Show more