• Song:

    You Aint The First

  • Artist:

    Guns N Roses

sponsored links
You Aint The First

Guns N Roses
Use Your Illusion I



Tabbed by:     Josip  ┼Żutelija
               josip.zutelija@zd.htnet.hr         



Tuned half step down


RIFF 1


------------------|------------------|-0--0h2--0--------|------------------|
--------12---14---|-9-/-------2--0-2-|------------------|------------------|
-/13--------------|------------------|------------------|------------------|       
------------------|------------------|------------------|------------------|
------------------|------------------|------------------|------------------|
------------------|------------------|------------------|------------------|

RIFF 2

                                                                           
-9-/7-------------|------------------|-0h2-0------------|------------------|
-------9-/7--9-/7-|-9-/7---2-0-2-----|------------------|------------------|
------------------|------------------|------------------|------------------|
------------------|------------------|------------------|------------------|
------------------|------------------|------------------|------------------|
------------------|------------------|------------------|------------------|

RIFF 3
                                                                            
---------12-------|------------------|------------------|------------------|
--11/12-----------|--11/12--11--10---|------------------|------------------|
------------------|------------------|------------------|------------------|
------------------|------------------|------------------|------------------|
------------------|------------------|------------------|------------------|
------------------|------------------|------------------|------------------|

RIFF 4
                                                                
------------------|------------------|------------------|------------------|
---12/14---12-----|------------------|----14/12---------|------------------|
------------------|--11/13----9~-----|-------------11/13|------------------|
------------------|------------------|------------------|------------------|
------------------|------------------|------------------|------------------|
------------------|------------------|------------------|------------------|

RIFF 5                               RIFF 6  
                                                                            
------------------|------------------|------------------|------------------|
------------------|------------------|------------------|------------------|
--2-/-4---4-/-5---|-5-/-6---6-/-8----|-9--11/13--11-----|---4-/-6-----4~---|
------------------|------------------|------------------|------------------|
------------------|------------------|------------------|------------------|
------------------|------------------|------------------|------------------|

RIFF 7
                                                                            
------------------|------------------|------------------|------------------|
------------------|------------------|------------------|---------------17-|
----9-/-16--------|---13/14---13-----|-9/11---9~--------|-12/14---14/16----|
------------------|------------------|------------------|------------------|
------------------|------------------|------------------|------------------|
------------------|------------------|------------------|------------------|



------------------|------------------|------------------|------------------|
------------------|------------------|----------------17|------------------|
--12/14----11/13--|--9~--------------|-12/14----14/16---|--12/14---11/13--9|
------------------|------------------|------------------|------------------|
------------------|------------------|------------------|------------------|
------------------|------------------|------------------|------------------|


                                                                            
------------------|------------------|------------------|------------------|
----------------17|------------------|------------------|----------------17|
--12/14---14/16---|-16/18---16-------|-12/14---11/13--9~|--12/14---14/16---|
------------------|------------------|------------------|------------------|
------------------|------------------|------------------|------------------|
------------------|------------------|------------------|------------------|


                                                                            
------------------|------------------|------------------|------------------|
------------------|------------------|------------------|------------------|
--16/18---16------|------------------|------------------|------------------|
------------------|------------------|------------------|------------------|
------------------|------------------|------------------|------------------|
------------------|------------------|------------------|------------------|



CHORDS DURING THE VERSE:      E         A         G#         A          B          F#m
                           022100    002220     466544     577655     799877     244222



Song Folow:

RIFF 1 x4
RIFF 2 x2
RIFF 3
RIFF 1 x2
RIFF 2 x2
RIFF 4
RIFF 5 x2
RIFF 6 
RIFF 5
RIFF 7
Show more
sponsored links
sponsored links