• Song:

    Amsterdam

  • Artist:

    Guster

  • Album:

    2003-06-28: Tower Reco...

Amstedam                      Guster- Keep it together

Intro:

    G   C   D   G   C   G   D   G
E|---------------------------------
B|---------------------------------
G|-----5555-77------55------77-----
D|--55-5555-77-5555-55-5555-77-5555
A|--55-3333-55-5555-33-5555-55-5555
e|--33---------3333----3333----3333

Verse:

“throw away your greatest hits”
    G   C   D   G   C   G   D   G
E|---------------------------------
B|---------------------------------
G|-----5555-77------55------77-----
D|--55-5555-77-5555-55-5555-77-5555
A|--55-3333-55-5555-33-5555-55-5555
e|--33---------3333----3333----3333


Pre Chorus:

(normal chords)                                      Am

“Right now, im going through your things”             1
C – Am – C – Am		                           2
 					         2
Chorus:						-
						-
“I’m gonna write you a letter”
					Bm
G - Em - Bm – D 			         1
			              	2
					3
G - Em - Bm – D				-						                            -
Post Chorus:				-


C - C - Am - C

Main Riff:
					Dadd9
						  
G - Em - D - Dadd9 – C			3
					3
					2
					-
					-
					-
Show more