• Song:

    Bury Me

  • Artist:

    Guster

  • Album:

    Goldfly

Guster - "Bury Me"
From the album 'Goldfly'

sweet bongo intro, then the build-up
G|-------------------------------------|
D|-------------------------------------|
A|-------------------------------------|
E|--4444444444444444-7777777777777777--|

Verse
G|------------------------------------|
D|------------------------------------|
A|-----4-4-----4-4-----4-4------------|
E|--2-------2-------2-------77777777--|

Prechorus - play the slide the second time
G|--------------------------------------|
D|--------------------------------------|
A|--------------------------------------|
E|--4444444444444444-77777777(/19--19)-|

Chorus - same as Verse

Quiet Part after Chorus
G|----------------------|
D|--------6---------11--|
A|-----4---------9------|
E|--2---------7---------|

That's all...Guster is for lovers->so be a lover.

?Buen provecho!

Mark Cooper - CoopS4172@AOL.com
Show more