• Song:

    Happier

  • Artist:

    Guster

  • Album:

    2003-06-28: Tower Reco...

Every tab i've seen for this song is wrong so you can all thank me later

"Happier" Guster

Standard Tuning

e
B
G
D
A
E

* let it ring

Intro  

(Gtr 1)

e|-------------------------------------------------
B|--10-----10-----9--9-----10---10-10----9--9--9---
G|--9------9------9--9-----9----9--9-----9--9--9---
D|--7------7------7--7-----7----7--7-----7--7--7---
A|-------------------------------------------------
E|-------------------------------------------------

(Gtr 1 Cont.)

e|----------------------------------------------
B|--10----10----9--9-----10----9--9--9--9--9----
G|--9-----9-----9--9-----9-----9--9--9--9--9----
D|----------------------------------------------
A|--9-----9-----9--9-----9-----7--7--7--7--7----
E|----------------------------------------------

(Gtr 2)

e|---------------------------------------
B|--2--2--3--2--3--2---2--2--3--2--3--2--
G|--2--2--2--2--2--2---2--2--2--2--2--2--
D|--2--2--2--2--2--2---2--2--2--2--2--2--
A|--0--0--0--0--0--0---0--0--0--0--0--0--
E|---------------------------------------

(Gtr 2 Cont.)

e|---------------------------------------------------r
B|--3--3--3--3--3--3--3--3---------------------------e
G|--4--4--4--4--4--4--4--4---1--1--1--1--1--1--1--1--p
D|--4--4--4--4--4--4--4--4---2--2--2--2--2--2--2--2--e
A|--2--2--2--2--2--2--2--2---2--2--2--2--2--2--2--2--a
E|---------------------------0--0--0--0--0--0--0--0--t

(Gtr 2 Cont.)
ending of intro into verse

e|--0*-----
B|--0*-----
G|--1*-----
D|--2*-----
A|--2*-----
E|--0*-----

Verse

(Both guitars)

          A     Bm    C#    E               *note    C#
     p.m.-----------------------|  repeat        e|------
                                                 B|--6---
say goodbye...                                   G|--6---
                                                 D|--6---
                                                 A|--4---
Chorus                                           E|------  

(Gtr 2)

      D      A       E
                           repeat
  so go on...

(Gtr 1 only first chorus)

e|--2---2---2---2---0---0---0---0--|-0-------0--------
B|----3---3---3---3---2---2---2---2|---0---0----(4x)--
G|---------------------------------|-----1------------  then
D|---------------------------------|------------------ repeat
A|---------------------------------|------------------
E|---------------------------------|------------------

that's all of the parts, here's the order


intro
verse
chorus
intro
verse
chorus
verse
chorus
intro

i know none of that looks like it makes any sense at all but
thats just when each of the parts are played.  if you listen 
to the song you can see what i mean.  i probably should have 
named the parts differently but oh well, i believe in you.
Show more