• Song:

    Happy Frappy

  • Artist:

    Guster

  • Album:

    Parachute

Guster - "Happy Frappy"
From the album 'Parachute'

Verse - basic pattern~> build around it
G|----------------------|
D|-----------4-4-2--2--|
A|------5--5------------|
E|--5-5-----------------|

Chorus
G|-----------------------|--------------------------|
D|------------2-2-4--4-2-|--------------------------|
A|--55-------------------|--555------2h4-4-4-4-4-4--|
E|------5--5-------------|-------5--5---------------|

G|-----------------------|-------------------------|
D|------------2-2-4--4-2-|-------------------------|
A|--55-------------------|--55---------------------|
E|------5--5-------------|------5--5--0-0-0-0-0-0--|

Yeah, so that's Happy Frappy. What a great song. GUSTER! WOO!

IMPROVISE !!

?Buen provecho!

Mark Cooper - CoopS4172@AOL.com
Show more