• Song:

    Homecoming King

  • Artist:

    Guster

  • Album:

    Promowest 7-26-2002

Artist: Guster
Song: Homecoming King
Album: Keep it Together. 
Standard tuning 

Intro 

E| ----------8-----8---8--8--8-8--8--||
B| -------8-----8------8--8--8-8--8--||
G| --10----------------9--9--9-9--9--||    Repeat 3x
D| ----------------------------------||   
A| ----------------------------------||
E| ----------------------------------||

Verse (guitar 1)
E| --8------8----8-------8------------||
B| ---8------8-----8------8-----------||
G| ----10-----10----9-----9-----------||    Repeat 2x
D| -----------------------------------||   
A| -----------------------------------||
E| -----------------------------------||
 
Verse(guitar 2) (play this part as is, it was the easiest way I could tab it.)

      Dm (2 bars)              C (2 bars)         	  
E| --1-----------||	E| --0-----------||                                            
B| --3-----------||	B| --2-----------||
G| --2-----------||	G| --0-----------||     
D| --2-----------||	D| --2-----------||     
A| --X-----------||	A| --3-----------||
E| --X-----------||	E| --X-----------||


      Dm (2 bars)              C (1 bars)         	     G
E| --1-----------||	E| --0-----------||	E| --0-----------||                                  
B| --3-----------||	B| --2-----------||	B| --2-----------||
G| --2-----------||	G| --0-----------||	G| --0-----------||     Repeat 1x
D| --2-----------||	D| --2-----------||	D| --2-----------||     
A| --X-----------||	A| --3-----------||	A| --3-----------||
E| --X-----------||	E| --X-----------||	E| --X-----------||








Pre-chorus Guitar 1 

E| ------------------------------------||--------------------------------------||
B| ------------------------------------||--------------------------------------||
G| ------------------------------------||--------------------------------------||  Repeat 1x
D| -----------3-3---------------3-3----||-----------3-3-----------------3-3----|| 
A| --------3-------3----------3------3-||---------3-----3------------3-------3-||
E| --1-1----------------1-1------------|| --3-3---------------3-3--------------||   

Pre-chorus Guitar 2 

     F (2 bars)               C (2 bars)         	  
E| --1-----------||	E| --0-----------||                                            
B| --3-----------||	B| --2-----------||
G| --2-----------||	G| --0-----------||     
D| --2-----------||	D| --2-----------||     
A| --X-----------||	A| --3-----------||
E| --X-----------||	E| --X-----------||

Chorus

     F                         C
E| --1-----------||	E| --0-----------||                                            
B| --3-----------||	B| --2-----------||
G| --2-----------||	G| --0-----------||     
D| --2-----------||	D| --2-----------||     
A| --X-----------||	A| --3-----------||
E| --X-----------||	E| --X-----------||


     F                         C                 
E| --1-----------||	E| --0-----------||           
B| --3-----------||	B| --2-----------||	
G| --2-----------||	G| --0-----------||   Repeat 1x
D| --2-----------||	D| --2-----------||     	 
A| --X----------||	A| --3-----------||     	
E| --X-----------||	E| --X-----------||     	



Verse (guitar 1)
E| --8------8----8-------8---------------||
B| ---8------8-----8------8--------------||
G| ----10-----10----9-----9--------------||    Repeat 2x
D| --------------------------------------||   
A| --------------------------------------||
E| --------------------------------------||
 
Verse(guitar 2) (play this part as is, it was the easiest way I could tab it.)

     Dm (2 bars)              C (2 bars)         	  
E| --1-----------||	E| --0-----------||                                            
B| --3-----------||	B| --2-----------||
G| --2-----------||	G| --0-----------||     
D| --2-----------||	D| --2-----------||     
A| --X-----------||	A| --3-----------||
E| --X-----------||	E| --X-----------||


      Dm (2 bars)              C (1 bars)         	     G
E| --1-----------||	E| --0-----------||	E| --0-----------||                                 
B| --3-----------||	B| --2-----------||	B| --2-----------||
G| --2-----------||	G| --0-----------||	G| --0-----------||     Repeat 1x
D| --2-----------||	D| --2-----------||	D| --2-----------||     
A| --X-----------||	A| --3-----------||	A| --3-----------||
E| --X-----------||	E| --X-----------||	E| --X-----------||

Chorus

     F                         C
E| --1-----------||	E| --0-----------||                                            
B| --3-----------||	B| --2-----------||
G| --2-----------||	G| --0-----------||     
D| --2-----------||	D| --2-----------||     
A| --X-----------||	A| --3-----------||
E| --X-----------||	E| --X-----------||

     F                        C                 
E| --1-----------||	E| --0-----------||           
B| --3-----------||	B| --2-----------||	
G| --2-----------||	G| --0-----------||   Repeat 2x
D| --2-----------||	D| --2-----------||     	 
A| --X-----------||	A| --3-----------||     	
E| --X-----------||	E| --X-----------||     	

Verse (it’s a little different but the same chords)

(guitar 1)
E| --8------8----8-------8------------||
B| ---8------8-----8------8-----------||
G| ----10-----10----9-----9-----------||    Repeat 2x
D| -----------------------------------||   
A| -----------------------------------||
E| -----------------------------------||
 
Verse(guitar 2) (play this part as is, it was the easiest way I could tab it.)

      Dm (2 bars)              C (2 bars)         	  
E| --1-----------||	E| --0-----------||                                            
B| --3-----------||	B| --2-----------||
G| --2-----------||	G| --0-----------||     
D| --2-----------||	D| --2-----------||     
A| --X-----------||	A| --3-----------||
E| --X-----------||	E| --X-----------||


     Dm (2 bars)              C (1 bars)         	     G
E| --1-----------||	E| --0-----------||	E| --0-----------||                             
B| --3-----------||	B| --2-----------||	B| --2-----------||
G| --2-----------||	G| --0-----------||	G| --0-----------||     Repeat 1x
D| --2-----------||	D| --2-----------||	D| --2-----------||     
A| --X-----------||	A| --3-----------||	A| --3-----------||
E| --X-----------||	E| --X-----------||	E| --X-----------||

Pre-chorus Guitar 1 

E| --------------------------------------||------------------------------------||
B| --------------------------------------||------------------------------------||
G| --------------------------------------||------------------------------------||  Repeat 1x
D| -----------3-3---------------3-3----||-----------3-3-----------------3-3----|| 
A| --------3-------3----------3------3-||---------3-----3------------3-------3-||
E| --1-1----------------1-1------------|| --3-3---------------3-3--------------||   

Pre-chorus Guitar 2 

     F (2 bars)               C (2 bars)         	  
E| --1-----------||	E| --0-----------||                                            
B| --3-----------||	B| --2-----------||
G| --2-----------||	G| --0-----------||     
D| --2-----------||	D| --2-----------||     
A| --X-----------||	A| --3-----------||
E| --X-----------||	E| --X-----------||

Chorus

      F                        C
E| --1-----------||	E| --0-----------||                                            
B| --3-----------||	B| --2-----------||
G| --2-----------||	G| --0-----------||     
D| --2-----------||	D| --2-----------||     
A| --X-----------||	A| --3-----------||
E| --X-----------||	E| --X-----------||


     F                         C                 
E| --1-----------||	E| --0-----------||           
B| --3-----------||	B| --2-----------||	
G| --2-----------||	G| --0-----------||   Repeat 1x
D| --2-----------||	D| --2-----------||     	 
A| --X----------||	A| --3-----------||     	
E| --X-----------||	E| --X-----------||     	

Bridge
(Guitar 1)
E| ----------8-----8---8--8--8-8--8--||
B| -------8-----8------8--8--8-8--8--||
G| --10----------------9--9--9-9--9--||    Repeat 1x
D| ----------------------------------||   
A| ----------------------------------||
E| ----------------------------------||

(Guitar 2)
     F (1 bars)                C (1 bars)         	  
E| --1-----------||	E| --0-----------||                                            
B| --3-----------||	B| --2-----------||
G| --2-----------||	G| --0-----------||     Repeat 1x
D| --2-----------||	D| --2-----------||     
A| --X-----------||	A| --3-----------||
E| --X-----------||	E| --X-----------||


I didn’t tab everything perfect, but all the chords andnotes are there, so listen to the song to get it. Thanks, and rate it!
Show more