• Song:

    Bakers Dozen

  • Artist:

    Guttermouth

  • Album:

    Musical Monkey

Band:Guttermouth
Song:Bakers Dozen

First intro
G:---------------------------------------------------------------
D:---------------------------------------------------------------
A:-2r----4r-6r-7r----9r------------------------------------------
E:---------------------------------------------------------------

Second intro part 1(Play it FAST)
G:-----------------------------4-2-1-2-4-0r----------------------
D:-------------------------4-2-----------------------------------
A:-2-2-0-2-2-0-2-2-0-2-2-0-------------------5-0-----------------
E:---------------------------------------------------------------

Second intro part 2
G:-----------------------------4-2-1-2-4-0r----------------------
D:-------------------------2-4-----------------------------------
A:-2-2-0-2-2-0-2-2-0-2-2-0-------------------5-0-----------------
E:---------------------------------------------------------------

Verse/Breakdown
G:---------------------------------------------------------------
D:---------------------------------------------------------------
A:-2-2-0-2-2-0-2-2-0-2-2-0-2-2-0---------5-0---------------------
E:-------------------------------3-3-3-3-------------------------

Chorus
G:---------------------------------------------------------------
D:---------------------------------------------------------------
A:-2-2-2-------5-5-5-5-0-5-0-------------------------------------
E:-------3-3-3---------------------------------------------------
Show more