• Song:

    Big Pink Dress

  • Artist:

    Guttermouth

  • Album:

    Musical Monkey

( ):  harmonic note
  :  slide down  
  /:  slide up 
  x:  mute
 PM: palm mute, "." under note to palm mute on

BEFORE VERSE:
|----------|
|----------|
|----------|
|-7-7--7-7-|
|-7-7--7-7-|
|-5-5--5-5-|


VERSE:
|---|---------------------------|4 TIMES
|---|---------------------------|
|---|---------------------------|
|-7-|-7-7-7-7-7/5--7-7-7-7-710-|
|-7-|-7-7-7-7-7/5--7-7-7-7-710-|
|-5-|-5-5-5-5-5/3--5-5-5-5-58--|
    PM. . . .      . . . . 


CHORUS:
|---------|4 TIMES
|---------|
|---5-7---|
|-7-5-7-5-|
|-7-3-5-5-|
|-5-----3-|


VERSE: 4 TIMES


CHORUS: 8 TIMES


NEXT PART:
|---------------------------------|4 TIMES
|---------------------------------|
|-----------------7-7-7-7-7-7-7-7-|
|-7-7-7-7-5-5-5-5-7-7-7-7-7-7-7-7-|
|-7-7-7-7-5-5-5-5-5-5-5-5-5-5-5-5-|
|-5-5-5-5-3-3-3-3-----------------|

|---------|LISTEN TO SONG
|---------|TO FIND OUT 
|-------5-|HOW LONG TO
|-7---7-5-|SUSTAIN EACH NOTE.
|-7---7-3-|
|-5---5---|4 TIMES


CHORUS: 7 TIMES


END WITH:
|-----------|
|-----------|
|-----------|
|-7-7-7-7-7-|
|-7-7-7-7-7-|
|-5-5-5-5-5-|
Show more