• Song:

    Big Pink Dress

  • Artist:

    Guttermouth

  • Album:

    Musical Monkey

Band: Guttermouth
Song: Big Pink Dress

INTRO
G:---------------------------------------------------------------
D:---------------------------------------------------------------
A:-------------------------55------------------------------------
E:7-7-7-7-77-55-7-7-7-7-77----7-7-7-7-7-77-55-7-7--77------------

VERSE 
G:----------------------------
D:----------------------------
A:-------------------------5-5
E:7-7-7-7-77-55-7-7-7-7-77----

CHORUS
G:---------------
D:---------------
A:----5-5-7------
E:7-7---------5-5

BRIDGE
G:-------------------------------
D:-------------------------------
A:----------------7-7---7-7-7---7
E:7-7---7-5-5---5----------------

FILL 2
G:---------------
D:---------------
A:---------------
E:10/7-------10/7

ENDING 1                ENDING 2 
G:---------------||------------------------------------------
D:---------------||------------------------------------------
A:----5-5-7------||------------------------------------------
E:7-7---------5-5||7-7--77-----------------------------------
Show more