• Song:

    Good Friday

  • Artist:

    Guttermouth

  • Album:

    Musical Monkey

Song: Good Friday
Band: GutterMouth 
Album: Musical Monkey
Bassist: Stever
Tabbed By: BassD 

>=play a couple of time 
/=slide up 

Intro/Verse /Chorus /Verse /Chorus 
G|(x3)-------|(x4)----------|(x4)-------|(x4)----------| 
D|-----------|--------------|-----------|--------------| 
A|-----3-3-3-|-3/5----------|-----3-3-3-|-3/5----------| 
E|-3>--------|-----5--5-3-5-|-3>--------|-----5--5-3-5-| 

Verse /Chorus 
G|-----------------------------------------------------|(x8)----------| 
D|--------10------10-10-10------10-10-10------10-10-10-|--------------| 
A|-3/10>-----10>-----------10>-----------10>-----------|-3/5----------| 
E|-----------------------------------------------------|-----5--5-3-5-| 

Bridge Strangely looking like the intro of the song "Blind" from Korn? 
G|------------------------|(x3)-------------|------------| 
D|------------------------|-----------------|------------| 
A|------------------------|-----------------|-/3----1--1-| 
E|-3--3--3--3--3--3--3--3-|-0-5-0-6-0-5-0-6-|-----3------| 

Easy as ***! 
Sing along my friends!!!! 
rancid_ska@hotmail.com
Show more