• Song:

    Hit Machine

  • Artist:

    Guttermouth

  • Album:

    Gorgeous

Artist: Guttermouth
Song: Hit Machine

Normal Tuning

/Slide up to
Slide down from

Intro
G-------------------------
D-/9--/99-99999----------
A-------------------------
E-----------------7-77777-

Chorus
G------------------
D------------------
A----5----877-5----
E-77---55-------77-

Verse
G--------------------
D--------------------
A--------------------
E-7-7-7-77-7-7-7-567-

Chorus part 2
G-----------------------------------
D-----------------------------------
A----5----5----567----5----7--------
E-77---77---77-----77---77---77-567-
Show more