• Song:

    Lipstick

  • Artist:

    Guttermouth

  • Album:

    Live at the House

This is played 4 times
|-------------------------------------------------------------|
|-------------------------------------------------------------|
|-------------------------------------------------------------|
|---9-x-9-9-9-9-9---------------------------------------------|
|---7-x-7-7-7-7-7-6-x-6-6-6-6-6-7-x-7-7-7-7-7-9-9-9-9-9-9-9-9-|
|-----------------4-x-4-4-4-4-4-5-x-5-5-5-5-5-7-7-7-7-7-7-7-7-|

This is also played 4 times
|-------------------------------------------------------------|
|-------------------------------------------------------------|
|-------------------------------------------------------------|
|---9-9-9-9-9-9-9---------------------------------------------|
|---7-7-7-7-7-7-7-6-6-6-6-6-6-6-7-7-7-7-7-7-7-9-9-9-9-9-9-9-9-|
|-----------------4-4-4-4-4-4-4-5-5-5-5-5-5-5-7-7-7-7-7-7-7-7-|

Solo

|----------------------------------------------------------------------------------|
|-5-5-0-0-5-4-4-0-0-4/5----------5/7/975-5-0-0-5-4-4-0-0-4/5---------------------|
|-----------------------6-6-6-6-------------------------------2-2-2/4-4-4-22-4-----|
|----------------------------------------------------------------------------------|
|----------------------------------------------------------------------------------|
|----------------------------------------------------------------------------------|

Solo(afterwards)(2 times)
|----------------------------------------------------------------------------------|
|----------------------------------------------------------------------------------|
|----------------------------------------------------------------------------------|
|----------------------------------------------------------------------------------|
|-/11-11-11-7-/11-11-11-6-6/7-4-7/9/11-11-9/11-11-7-----------------------------|
|----------------------------------------------------------------------------------|

Again, this is played 4 times
|-------------------------------------------------------------|
|-------------------------------------------------------------|
|-------------------------------------------------------------|
|---9-9-9-9-9-9-9---------------------------------------------|
|---7-7-7-7-7-7-7-6-6-6-6-6-6-6-7-7-7-7-7-7-7-9-9-9-9-9-9-9-9-|
|-----------------4-4-4-4-4-4-4-5-5-5-5-5-5-5-7-7-7-7-7-7-7-7-|


|---|
|---|
|---|
|-9-| BASSE SOLO
|-7-|
|---|

Second solo
|-------------------------------------|
|----9--------------------------------|
|-9----9---8-----8-----9----9---8---8-|
|-9------9---9-9---11---11---9---9----|
|-------------------------------------|
|-------------------------------------|

2 times
|-------------------------------------------------------------|
|-------------------------------------------------------------|
|-------------------------------------------------------------|
|---9-x-9-9-9-9-9---------------------------------------------|
|---7-x-7-7-7-7-7-6-x-6-6-6-6-6-7-x-7-7-7-7-7-9-9-9-9-9-9-9-9-|
|-----------------4-x-4-4-4-4-4-5-x-5-5-5-5-5-7-7-7-7-7-7-7-7-|


|-------------------------------------------------------------|
|-------------------------------------------------------------|
|-------------------------------------------------------------|
|---9-9-9-9-9-9-9---------------------------------------------|
|---7-7-7-7-7-7-7-6-6-6-6-6-6-6-7-7-7-7-7-7-7-9-9-9-9-9-9-9-9-|
|-----------------4-4-4-4-4-4-4-5-5-5-5-5-5-5-7-7-7-7-7-7-7-7-|

Then
|---------------------------------------|
|---------------------------------------|
|---------------------------------------|
|-9-9-9-9-9-9-9-------------------------|
|-7-7-7-7-7-7-7-6-6-6-6-6-6-6-7-7-7-7-7-|
|---------------4-4-4-4-4-4-4-5-5-5-5-5-|

For another time (4)
|-------------------------------------------------------------|
|-------------------------------------------------------------|
|-------------------------------------------------------------|
|---9-9-9-9-9-9-9---------------------------------------------|
|---7-7-7-7-7-7-7-6-6-6-6-6-6-6-7-7-7-7-7-7-7-9-9-9-9-9-9-9-9-|
|-----------------4-4-4-4-4-4-4-5-5-5-5-5-5-5-7-7-7-7-7-7-7-7-|

After
|---------------------------------------------------------|
|---------------------------------------------------------|
|-9-x-9-9-9-9-9-8-x-8-8-8-8-8-6-x-6-6-6-6-6-4-x-4-4-4-4-4-|
|-x-x-x-x-x-x-x-x-x-x-x-x-x-x-x-x-x-x-x-x-x-x-x-x-x-x-x-x-|
|-7-x-7-7-7-7-7-6-x-6-6-6-6-6-4-x-4-4-4-4-4-2-x-2-2-2-2-2-|
|---------------------------------------------------------|


|---------------------------------------------------|
|---------------------------------------------------|
|-9-x-9-9-9-9-9-8-x-8-8-8-8-8-6-x-6-6-6-6-6-4-4-4-4-|
|-x-x-x-x-x-x-x-x-x-x-x-x-x-x-x-x-x-x-x-x-x-x-x-x-x-|
|-7-x-7-7-7-7-7-6-x-6-6-6-6-6-4-x-4-4-4-4-4-2-2-2-2-|
|---------------------------------------------------|

The ending
|-------------------------------------------------------------------------|
|-------------------------------------------------------------------------|
|-9/1111/13139-/13-13-13-8-8-8-8-8-8-9-6-6-6-6-6-9-1113-131113-139------|
|-x-x-x-x-x-x-x-x-x-x-x-x-x-x-x-x-x-x-x-x-x-x-x-x-x-x-x-x-x-x-x-x-x-x-----|
|-7/9-9/11-117-/11-11-11-6-6-6-6-6-6/7-4-4-4-4-4-7/9/11-11-9/11-117-7-2-|
|---------------------------------------------------------------------5-0-|
Show more