• Song:

    Lipstick

  • Artist:

    Guttermouth

  • Album:

    Live at the House

-------------------------------------------------------------------------------
                            LIPSTICK - Guttermouth
-------------------------------------------------------------------------------



                Main Riff
e|-------------------------------------------------------------|
B|-------------------------------------------------------------|
G|-9-x-9-9-9-x-------------------------------------------------|
D|-9-x-9-9-9-x-6-x-6-6-6-x-7-x-7-7-7-7-9--9--7--7--9--9--7--7--|
A|-7-x-7-7-7-x-6-x-6-6-6-x-7-x-7-7-7-7-9--9--7--7--9--9--7--7--|
E|-------------4-x-4-4-4-x-5-x-5-5-5-5-7--7--5--5--7--7--5--5--|
      
e|----------------------|
B|----------------------|
G|-9--------------------|
D|-9--6--7--7--7--9--7--|
A|-7--6--7--9--7--9--7--|
E|----4--5--7--5--7--5--|

    HERE IS THE SOLO.       
e|--------------------------------------------------------------------|
B|--------------------------------------------------------------------|
G|----------------------------------------------1113-1311-----------|
D|-14------14--13------13--1314-11-11-11-11-14-------------14----14--|
A|-----14----------14------------------------------------------14-----|
E|--------------------------------------------------------------------|

     solo, continued
e|-------------------------------------------------------|
B|-------------------------------------------------------|
G|-------------------------------------------------------|
D|-13------13-1314--------------------------------------|
A|-----14-----------12-12-12-12-14-14-12-12-14-14-12-12--|
E|-------------------------------------------------------|

  DO THIS SET  2  TIMES
e|--------------------------------------------------|
B|--------------------------------------------------|
G|--------------------------------------------------|
D|--------------------------------------------------|
A|-11------11-11-------------------------911-119--|
E|-----12---------11-11-1112-9-9-9-9-12------------|

     do this part twice. play it clean. no distortion
e|------------------------------------------------------|
B|-----9------------------------------------------------|
G|-------9-----------4-------------6-------------8------|
D|---9-----9-------6---6---------7---7---------9---9----|
A|-7-------------6-------6-----7-------7-----9-------9--|
E|-------------4-------------5-------------7------------|

     play this twice. play this clean also
e|-------------------------------------------------------------|
B|-------------------------------------------------------------|
G|-9-x-9-9-9-x-------------------------------------------------|
D|-9-x-9-9-9-x-6-x-6-6-6-x-7-x-7-7-7-7-9--9--7--7--9--9--7--7--|
A|-7-x-7-7-7-x-6-x-6-6-6-x-7-x-7-7-7-7-9--9--7--7--9--9--7--7--|
E|-------------4-x-4-4-4-x-5-x-5-5-5-5-7--7--5--5--7--7--5--5--|

     the last solo. this plays in distortion
e|---------------------------------------------------------------------------------|
B|---------------------------------------------------------------------------------|
G|---------------------------------------------------------------------------------|
D|---------------------------------------------------------------------------------|
A|-7-7-7-7-76-6-6-6-6-64-4-4-4-42-2-2-2-2-2-7-7-7-7-79-6-6-6-6-67-4-4-4-4-42-|
E|---------------------------------------------------------------------------------|

     solo, continued
e|-----------------------------------------------------------------------|
B|-----------------------------------------------------------------------|
G|-----------------------------------------------------------------------|
D|-----------------------------------------------------------------------|
A|-2-2-2-2-2--11-11-------11--11-11---------------------------911-119--|
E|------------------12-12-----------11-11-11-1112-9-9-9-9-12------------|

     solo, contineud
e|---------------------------------------------------------------|
B|---------------------------------------------------------------|
G|------------------------------------------------------------9--|
D|------------------------------------------------------------9--|
A|-11-11-------11--11-11---------------------------911-119--7--|
E|-------12-12-----------11-11-11-1112-9-9-9-9-12---------------|

     this is bass line. as you play it, it changes in it beats. you figure it out
G|------------------------------------------------------|
D|------------------------------------------------------|
A|------------------------------------------------------|
E|-0-0-0-0-0-0-4-4-4-4-4-4-5-5-5-5-5-5-7-7-5-5-7-7-5-5--|
Show more