• Song:

    Lipstick

  • Artist:

    Guttermouth

  • Album:

    Live at the House

U= Upstroke
D= Downstroke
x= Mute

              A  "On a Tuesday AfterNoon"

e -------------------------------------------------------------
b -------------------------------------------------------------
g -------------------------------------------------------------             
D ----2-x-2-2-2-0 -6-x-6-6-6-0 -7-x-7-7-7-0 -9-9 -7-7 -9-9 -7-7
A ----2-x-2-2-2-0 -6-x-6-6-6-0 -7-x-7-7-7-0 -9-9 -7-7 -9-9 -7-7
E ----0-x-0-0-0-0 -4-x-4-4-4-0 -5-x-5-5-5-0 -7-7 -5-5 -7-7 -5-5
      D   D U D U  D   D U D U  D   D U D U  D U  D U  D U  D U 


              B "Don't ever barge in my Room"


e --------------------------------------------------------------
b ----9-9-9-9-9-------------------------------------------------
g ----9-9-9-9-9-0 -5-5-5-5-5--- -6-6-6-6-6-- -8-8 -6-6 -8-8 -6-6
D ----9-9-9-9-9-0 -6-6-6-6-6-0- -7-7-7-7-7-0 -9-9 -7-7 -9-9 -7-7
A ----7-7-7-7-7-0 -6-6-6-6-6-0- -7-7-7-7-7-0 -9-9 -7-7 -9-9 -7-7
E --------------- -4-4-4-4-4-0- -5-5-5-5-5-0 -7-7 -5-5 -7-7 -5-5
      D U D U D U  D U D U D U   D U D U D U  D U  D U  D U  D U


SOLO (The basic part of it)


e --------------------------------------------------------------
b ------------------------7-9-7---------------------------------
g ----9-9-8-8-8/9-6-6666-9------9-9-8-8-8/9---------------------
D -----9---9---------------------9---9-----7-7777-99-77-99-77---
A --------------------------------------------------------------
E

Solo 

e -----------------------------------------------------------------
b -----------------------------------------------------------------
g -----------------------------------------------------------------
D ----6-----6-6----------------4-6-4-6-----6-6----------------4-6-4
A ------7-77---6-66-6h7-4-444h7--------7-77---6-66-6h7-4-444h7-----
E -----------------------------------------------------------------


 Fill (the nice bit)

e ---------------------------------
b ------9--------------------------
g -------9------4-------5-------8--
D -----9--9----6-6-----7-7-----9-9-
A ----7-------6---6---7---7---9---9
E -----------4-------5-------7-----






Order

A
B
Solo
Fill
b
Show more