Band: Gym Class Heroes
Song: Papercuts
Bassist: Eric Roberts
Tabber: Sleepy_Head

Intro

G|--7-0-7-0-7-0-7-0-7-0-7-0-7-0-----|
D|----------------------------------|
A|----------------------------------|
E|----------------------------------|

-PAUSE-

Verse x2

G|----------------------------------------------------------------------------------|
D|---------5-------3----------------------------------------------------------------|
A|-------------------------------------6-------5-------3-------1--------------------|
E|----1-3-----1-3------1h31h3-----1-3-----1-3-----1-3-----1-3-----1-3--5--1-3--1----|

Verse Part 2 (slow slides, listen to song for timing)

G|----------------------------|
D|----------------------------|
A|----------------------------|
E|----3/10\3/10\3/10\3/10\----|

These are the main parts, the song repeats verse part 1 & 2 however many times until its finished.
(there may be a few variations of the structure)

PEACE
x
Show more