-----------------------------------------------------------------------------
			     PAPERCUTS - Gym Class Heroes
-----------------------------------------------------------------------------
Tabbed By : Likien
e-mail: likien {dot} exe {at} hotmail {dot} com
Tuning: Standard 5-string (BEADG)

** This is how I play the song; if you don't find it comfortable, play in a 
different position on the fretboard **

Intro
G|---------------------------------------------------------------------------|
D|-12----12----12----12----12----12----12----12----12----12----12----12------|
A|----10----10----10----10----10----10----10----10----10----10----10----10---|
E|---------------------------------------------------------------------------|
B|---------------------------------------------------------------------------|
 - Silence -
Chorus  x2 
("She says she loves me but...")
G|--------------------------------------------------------------------------------|
D|-------5---------3--------------------------------------------------------------|
A|--------------------------6---------5---------3-------------------------------5-|
E|----3---------3---------3---------3---------3--------3--6-----3-----5---3-------|
B|-6---------6---------6---------6---------6--------6--------------6---------6----|
- Silence -
Verse A  x4 
("Don't forget to take your medicine/ I hate it when her face is...")
G|---------------------------------------|
D|---------------------------------------|
A|----------------5/3--------------------|
E|--3-3-3-3-3/1---------3/1------3/1-----|
B|---------------------------3-----------|

Verse B x1
("Man I love her/ I star bleeding when she's leaving...")
G|-----------------------------------------------------------------------------------|
D|---------------5--------5--------5--------5--------5--------5--------5--------5----|
A|-----------------------------------------------------------------------------------|
E|------------3--------3--------3--------3--------3--------3--------3--------3-------|
B|-6-6-6-6-6--------6--------6--------6--------6--------6--------6--------6----------|

Quick fill
G|---------|
D|---------|
A|---------|
E|-1/3---3-|
B|-----6---|
And immediately play:
  Chorus     x2
- Silence -
  Verse A    x4
  Verse B    x1
  Quick fill x1
  Chorus     x2

Finally, play this chorus variation twice:
G|-----------------------------------------------------------------------------------------------|
D|------5------3---------------------------------------------------------------------------------|
A|------------------------------6--------5----------------3-------------------------------------5|
E|---3------3----1/3---3-----3--------3----1/3---3-----3--------3--6--1/3---3---3-----5---3------|
B|6------6-----------6----6--------6-----------6----6--------6------------6--------6---------6---|

End with
G|------------|
D|------------|
A|------------|
E|--1/3---3-3-|
B|------6-----|

===============================================================================
Show more