-------------------------------------------------------------------------------
		  Shoot Down The Stars - Gym Class Heroes
-------------------------------------------------------------------------------

Tabbed By : Rhoads_is_a_god

Well, frankly, I love this band's music and heard this song and thought I might give it 
try. And the fact that the other tabs were very inaccurate. So, here goes.

Verse

G|------------|------------|
D|------------|------------|
A|------3-3---|---------5-5|
E|0-0---------|---3-3------|

Pre-Chorus (Wasn't really sure on this but this is close)

G|--------------|--------------|--------------|--------------|--------------|
D|--------------|--------------|--------------|--------------|--------------|
A|2-2---2--2-2-2|3-3---3--3-3-3|5-5---5--5-5-5|3-3---3--3-3-3|--3/12\0------|
E|--------------|--------------|--------------|--------------|--------------|

Chorus

G|--------------|--------------|--------------|--------------|
D|2-2---2--2-2-2|--------------|--------------|--------------|
A|--------------|2-2---2--2-2-2|0-0---0--0-0-0|0-0---0--0-0-0|
E|--------------|--------------|--------------|--------------|

Post-Chorus

G|--------------|--------------|--------------|--------------|
D|2-2---2--2-2-2|--------------|--------------|--------------|
A|--------------|2-2---2--2-2-2|0-0---0--0-0-0|0-0---0--0-0-0|
E|--------------|--------------|--------------|--------------|

 ------------
| Song Order |
 ------------
Verse 8x
Pre-Chorus
Chorus 2x
Post-Chorus
Verse 8x
Pre-Chorus 2x
Chorus 6x
Pre-Chorus
Chorus 5x (last part is too faded out to hear)

| /  slide up
| \  slide down
| h  hammer-on
| p  pull-off
| ~  vibrato
| +  harmonic
| x  Mute note
===============================================================================
Show more