Intro
-------------------------------------------------|
-------7-7--7----------------------2--- Repeat 1-|2x
5--5--5------5-5-5-3--0-0--0-0--0-3-0-0----------|
-------------------------------------------------|

(1:13) (Chorus)
--------------------------------------------------------------------------|
--------------------------------------------------------------------------|
5--5--5-5-5--5-5-5--5-0-0--0-0-0--0-0-0--0-0-0--0-------------------------|
-------------------------------------------------5-5--5-5-5--5-5-5--5-5-5-|

------------------------------------|
--------------------------- Repeat--| 2x
------------------------------------|
-5-3-3--3-3-3--3-3-3--3-3-3---------|


(1:37)
-------------------|
---------- Repeat--| 2x
5-5----0-0---------|
-------------------|

(1:49)
------------------------------------------------|
-------7-7--7----------------------2--- Repeat--| 4x
5--5--5------5-5-5-3--0-0--0-0--0-0-0-0---------|
------------------------------------------------|


(2:16)
---------------------------|
----------------5-------3--|
5---0-------0-----5------3-|
--------0------------------|


(2:28) (Chorus)
--------------------------------------------------------------------------|
--------------------------------------------------------------------------|
5--5--5-5-5--5-5-5--5-0-0--0-0-0--0-0-0--0-0-0--0-------------------------|
-------------------------------------------------5-5--5-5-5--5-5-5--5-5-5-|

------------------------------------|
--------------------------- Repeat--| 2x
------------------------------------|
-5-3-3--3-3-3--3-3-3--3-3-3---------|


(2:52) (End)
-------------------------------------------------|
--------------------------------------------2----|
5--5--5-5-5--5-5-5---5-0--0-0--0-0--0-0--0-3-0-0-|
-------------------------------------------------|

----------------------------------------|
-------7-7--7----------------------2----|
5--5--5------5-5-5-3--0-0--0-0--0-3-0-0-|
----------------------------------------|


Any Questions or request Email me: Email:(Girzgaz@aol.com)
Show more