Djobi Djoba
Gipsy Kings
Bass Tab

108BPM, 4/4

Intro

||----------|---------|---------|-----------||
||o---------|---------|---------|----------o||
||o---------|---------|---------|----------o||
||----------|---------|---------|--------0--||

Verse

|---------------|---------------|---------------|----------------|
|---------------|---------------|---------------|----------------|
|-------0-------|-------0-------|-------0-------|-------1--------|
|-1-0-1-------0-|-1-0-1-------0-|-1-0-1-------0-|-1-0-1-------0--|

|---------------|---------------|---------------|---------------|
|---------------|---------------|---------------|---------------|
|-----5---------|-----5---------|-----5---------|-----5---------|
|-6-8---6-----0-|-6-8---6-----0-|-6-8---6-----0-|-6-8---6-----0-|

|---------------|---------------|---------------|---------------|
|----------7----|---------------|----------7----|---------------|
|---------------|---------------|---------------|---------------|
|-5-7-8-5-----0-|-5-7-8-5-----0-|-5-7-8-5-----0-|-5-7-8-5-----0-|

|---------------|---------------|--------------|--------------|
|---------------|---------------|--------------|--------------|
|---------------|---------------|-3--1---------|--------------|
|-3-5-6-3-----0-|-3-5-6-3-----0-|------3-----0-|-1-0-1-1------|

Chorus

|---------|------------|-----------------|------------------|
|---------|------------|-7x10x9x77-----5-|-7x10x9x77-----5--|
|---------|-----/5\----|------------x7---|------------x7----|
|---------|------------|-----------------|------------------|

|-------------|---------------|-------------|-----|
|-5x8x7x55----|-5x8x7x55------|-------------|-----|
|-------------|----------3----|-------------|-----|
|-------------|---------------|-1--1--1--1--|-----|

|------------|--------------|-----------------|-------------|
|------------|-7x10x9x77----|-7x10x9x77-----5-|-5x8x7x55----|
|-----/5\----|--------------|------------x7---|-------------|
|------------|--------------|-----------------|-------------|

|--------------|--------------|
|-5x8x7x55-----|-3------------|
|---------3----|----3---------|
|--------------|-------1----0-|

Verse

|---------------|---------------|--------------|---------------|
|---------------|---------------|--------------|---------------|
|-------0-------|---------------|--------------|-------3-------|
|-1-0-1-------0-|-5-0-5-0-----0-|-3--5-3-----0-|-3-3-5-------0-|

|---------------|---------------|---------------|--------------|
|---------------|---------------|---------------|--------------|
|-------0-------|---------------|---------------|------3-------|
|-1-0-1-------0-|-5-0-5-0-----0-|-3-3-5-3-----0-|-3--5-------0-|

|---------------|---------------|---------------|---------------|
|---------------|---------------|---------------|---------------|
|-------0-------|-------0-------|-----5---------|-----5---------|
|-1-0-1-------0-|-1-0-1-------0-|-6-8---6-----0-|-6-8---6-----0-|

|---------------|---------------|---------------|---------------|
|----------8----|---------------|---------------|----------8----|
|-----5---------|-----5---------|-----5---------|-----5---------|
|-6-8---6-----0-|-6-8---6-----0-|-6-8---6-----0-|-6-8---6-----0-|

|---------------|---------------|---------------|---------------|
|---------------|---------------|---------------|---------------|
|-----5---------|---------------|---------------|---------------|
|-6-8---6-----0-|-5-7-8-5-----0-|-5-7-8-5-----0-|-5-7-8-5-----0-|

|-----------------|---------------|-------------|---------------|
|-----------------|---------------|-------------|---------------|
|-----------------|---------------|-------------|-3-3-1---------|
|-5-7-8-5-3-5-6-3-|-----0-3-5-6-3-|-----0-3--5--|-------3-----0-|

|----------------|
|----------------|
|----------------|
|-1-0-1-1--------|

Chorus

|---------|------------|--------------|------------------|
|---------|------------|-7x10x9x77----|-7x10x9x77-----5--|
|---------|-----/5\----|--------------|------------x7----|
|---------|------------|--------------|------------------|

|-------------|--------------|-----------|-----|
|-5x8x7x55----|-5x8x7x55-----|-----------|-----|
|-------------|---------3----|-----------|-----|
|-------------|--------------|-1----1----|-----|

|---------------|-----------------|-----------------|-------------|
|---------------|-7x10x9x77-----5-|-7x10x9x77-----5-|-5x8x7x55----|
|-----/11\--8\--|------------x7---|------------x7---|-------------|
|---------------|-----------------|-----------------|-------------|

|--------------|----------|---------|------------------|
|-5x8x7x55-----|----------|---------|--------7x10x9x77-|
|---------3----|----------|---------|-/5\--------------|
|--------------|-1--------|---------|------------------|

|---------------|----------------|--------------|-----------|
|-----7x10x9x77-|-----5-5x8x7x55-|-----5x8x7x55-|-----------|
|---------------|--x7------------|--------------|-3---------|
|---------------|----------------|--------------|------1----|

|-----|---------|----------|-------------|
|-----|---------|----------|-7x10x9x77---|
|-----|---------|-/5--/5\--|-------------|
|-----|---------|----------|-------------|

|---------------|----------------|--------------|-----------|
|-----7x10x9x77-|-----5-5x8x7x55-|-----5x8x7x55-|-----------|
|---------------|--x7------------|--------------|-3---------|
|---------------|----------------|--------------|------1----|
Show more