• Song:

    Nazaret

  • Artist:

    Hair Of The Dog

Riff 1
e|-------------------------------------------------------|
b|-------------------------------------------------------|
g|-------------------------------------------------------|
d|------------------------2-------2--5b--2--0--2---------|
a|-------------------------------------------------------|
e|--0----0----3--4---------------------------------------|

   Riff 2
e|-------------------------------------------------------|
b|-------------------------------------------------------|
g|-------------------------------------------------------|
d|------------------------7---------10b--7--------7------|
a|--------------------7------------------------10--------|
e|--5----5----8--(b9)--------------------------------------|

   Chorus
e|-------------------------------------------------------|
b|-------------------------------------------------------|
g|----(b9)-----------------------------(b9)----7---7(b9)--(b9)--|
d|----(b9)--------5------/7------------(b9)----7---7(b9)--(b9)--|
a|----7---------5------/7------------7-----5---5/7---7---|
e|--------------3------/5--------------------------------|

IN THIS ORDER!!!
-Play Riff 1 6x
-Play Riff 2 2x
-Play Riff 1 6x
-Play the chorus 3x
-Play Riff 1 6x
-Play Riff 2 2x
-Play Riff 1 2x
-Play the chorus 3x
-Play Riff 1 3x
-Play Riff 1 2x
-Play chorus 9x
Show more