Tollgate
By: Hale
Bass tab

Tabbed by: Al Enrico G. Rivera

Simple lang
 to..

rineject pala ung dati kong gawa. di ko naman kinopya un ultimate- guitar a!bd3p. Hehe. 
ko lng naalalang ipost ?to ulit.
Pls. Rate. tnx

Verse I.

G-------------------------------------------------------------------------------------|
D-------------------------------------------------------------------------------------|
A-------------------------------------------------------------------------------------|
E--12-12-11-12--12-12-11-12--12-12-11-12-14-14-/16\9-9-7-9--9-9-7-9--9-9-7-9--9-9-7-9-|

G-------------------------------------------------------------------------------------|
D-------------------------------------------------------------------------------------|
A-------------------------------------------------------------------------------------|
E--12-12-11-12--12-12-11-12--12-12-11-12-14-14-/16\5-5-5-5-5-5-5-5-5-5-5-5-5-5-5-5----|

G-------------------------------------------------------------------------------------|
D-------------------------------------------------------------------------------------|
A-------------------------------------------------------------------------------------|
E--12-12-11-12--12-12-11-12--12-12-11-12-14-14-/16\9-9-7-9--9-9-7-9--9-9-7-9--9-9-7-9-|

G----------------------------------------------------------------------------------|
D----------------------------------------------------------------------------------|
A------------------------------------------------------6-7-----6-7-----6-7-----6-7-|
E--12-12-11-12--12-12-11-12--12-12-11-12-14-14-/16\5-5-----5-5-----5-5-----5-5-----|

Instrumental

G---------------------------------------------------------------------------------------|
D---------------------------------------------------------------------------------------|
A---------------------------------------------------------------------------------------|
E--12-12-12-12-12-12-12-12-12-12-12-12-12-12-12-12-/17\-9-9-9-9-9-9-9-9-9-9-9-9-9-9-9-9-|

G-------------------------------------------------------------------|
D-------------------------------------------------------------------|
A---------------------------------------6-7-----6-7-----6-7-----6-7-|
E--7-7-7-7-7-7-7-7-7-7-7-7-7-7-7-7--5-5-----5-5-----5-5-----5-5-----|

Verse II.
G-------------------------------------------------------------------------------------|
D-------------------------------------------------------------------------------------|
A-------------------------------------------------------------------------------------|
E--12-12-11-12--12-12-11-12--12-12-11-12-14-14-/16\9-9-7-9--9-9-7-9--9-9-7-9--9-9-7-9-|


G-------------------------------------------------------------------------------------|
D-------------------------------------------------------------------------------------|
A------------------------------------------------------6-7-----6-7-----6-7-----6-7----|
E--12-12-11-12--12-12-11-12--12-12-11-12-14-14-/16\5-5-----5-5-----5-5-----5-5--------|

G-------------------------------------------------------------------------------------|
D-------------------------------------------------------------------------------------|
A-------------------------------------------------------------------------------------|
E--12-12-11-12--12-12-11-12--12-12-11-12-14-14-/16\9-9-7-9--9-9-7-9--9-9-7-9--9-9-7-9-|

G----------------------------------------------------------------------------------|
D----------------------------------------------------------------------------------|
A------------------------------------------------------6-7-----6-7-----6-7-----6-7-|
E--12-12-11-12--12-12-11-12--12-12-11-12-14-14-/16\5-5-----5-5-----5-5-----5-5-----|


(Same as instrumental)
G---------------------------------------------------------------------------------------|
D---------------------------------------------------------------------------------------|
A---------------------------------------------------------------------------------------|
E--12-12-12-12-12-12-12-12-12-12-12-12-12-12-12-12-/17\-9-9-9-9-9-9-9-9-9-9-9-9-9-9-9-9-|

G----------------------------------------------------------------------|
D----------------------------------------------------------------------|
A---------------------------------------6-7-----6-7-----6-7-----6-7----|
E--7-7-7-7-7-7-7-7-7-7-7-7-7-7-7-7--5-5-----5-5-----5-5-----5-5--------|

Adlib part
G---------------------------------------------------------------------------------------|
D---------------------------------------------------------------------------------------|
A---------------------------------------------------------------------------------------|
E--12-12-12-12-12-12-12-12-12-12-12-12-12-12-12-12-/17\-9-9-9-9-9-9-9-9-9-9-9-9-9-9-9-9-|

G--------------------------------------------------------------|
D--------------------------------------------------------------|
A-----------6-6-7-7-9-9-11-11-----6-7-----6-7-----6-7-----6-7--|
E--77777777-------------------5-5-----5-5-----5-5-----5-5------|

Verse III.


G----------------------------------------------------------------|
D----------------------------------------------------------------|
A----------------------------------------------------------------|
E-----------------------------9-9-7-9--9-9-7-9--9-9-7-9--9-9-7-9-|
  ...turning off the lights..

G----------------------------------------------------------------------------------|
D----------------------------------------------------------------------------------|
A------------------------------------------------------6-7-----6-7-----6-7-----6-7-|
E--12-12-11-12--12-12-11-12--12-12-11-12-14-14-/16\5-5-----5-5-----5-5-----5-5-----|
 ..trough, im here without you..(play softly)

G---------------------------------------------------------------------------------------|
D---------------------------------------------------------------------------------------|
A---------------------------------------------------------------------------------------|
E--12-12-12-12-12-12-12-12-12-12-12-12-12-12-12-12-/17\-9-9-9-9-9-9-9-9-9-9-9-9-9-9-9-9-|

G-------------------------------------------------------------|
D-------------------------------------------------------------|
A-----------6-6-7-7-9-9-11-11-----6-7-----6-7-----6-7-----6-7-|
E--77777777-------------------5-5-----5-5-----5-5-----5-5-----|
Show more