WISHING
Hale
Tabbed By: ALVIN S. ZAFRA
Intro:

Guitar 1
e-----------------------------------------------------------|
B--------------3--2--2------------------3?2--2--------------|
G-------2--4--4-------4--2---------2?4--4-----4-2-----------|
D-0--0------------------------------------------------------|
A------------------------------2--2-------------------------|
E-----------------------------------------------------------|
Cont:
----------------------------------------|
------------3--2--2---------------------|
--------2?-4--4--------4-2--------------|
----------------------------------------|
--0--0----------------------------------|
---------------------------------3^-----|

               F                 E
e-------------------------------------------------------|
B-------------------------------------------------------|
G-------3-3-3-3-------------1---------------------------|
D-------3-3-3-3-------------2---------------------------|
A-----------------------------2-------------------------|
E-------1-1-1-1-----------------------------------------|

 Guitar 2


e-----------------------------------------------------------|
B-----------------------------------------------------------|
G--------7--9---12--11--11--9--7--------7--9--s12-----------|
D-0--0-------------------------------9--9-------------------|
A-----------------------------------------------------------|
E-----------------------------------------------------------|

Cont:
------------------------------------------------------------|
-------------------------- ---------------------------------|
-11--11--9--7--------7--7?s12--11--11--9--7-----------------|
-----------------7--7---------------------------------------|
------------------------------------------------------5^----|
------------------------------------------------------------|




1st Verse:

Refrain:

Chorus:

Outro: Guitar 1
e-----------------------------------------------------------|
B-----------------------------------------------------------|
G--------7--9---12--11--11--9--7--------7--9--s12-----------|
D-0--0-------------------------------9--9-------------------|
A-----------------------------------------------------------|
E-----------------------------------------------------------|

Cont:
------------------------------------------------------------|
-------------------------- ---------------------------------|
-11--11--9--7--------7--7?s12--11--11--9--7-----------------|
-------------------7--7-------------------------------------|
-----------------------------------------------------5^-----|
------------------------------------------------------------|




2nd  Verse:

Refrain:

Chorus:

Guitar 1
e---------------------------------------------------------------|
B---------------8--7--7-----------------------8--7--7-----------|
G--------7--9-------------9--7--------7--9-----------9--7-------|
D-0--0--------------------------9--9----------------------------|
A---------------------------------------------------------------|
Cont;
--------------------------|
--------------8--7--------|
-------7--9-------9--7----|
-7--7---------------------|
--------------------------|

E-------10----9------------------------------------------------|
B------------------10---8--7-----------------------------------|
G-------------------------------7-----------3---1--------------|
D------------------------------------------- 3---2-------------|
A------------------------------------------------2-------------|
E------------------------------------------------1-------------|

Mga dudes eto na ung tab...........
Show more