Song Title: Wishing
Artist: Hale
Album: Hale
Genre: Alternative Rock
Tabbed by: Tristan
Email: linkinmark090791@yahoo.com (friendster din ito!)

Hi to Infringe (ARLO, EARL, RONALD) [ITLOG, BAYOT, PASAS]! \m/
Go to scihi..ayaw bitaw...hehe

Sure ako na 99.99999999999999999999999% accurate and tab na ito...
Pakirate naman po... 5*

Actually, my maraming plucking sa verses para sa lead guitars pero kayo nalng po bahala dyan...

Tuning: standard (eADGBE)

Intro part 1:
e|---------------------------------------------------------------------|
B|---------------------------------------------------------------------|
G|-------------7-6-----------------------------7-6---------------------|
D|-0-0-7-9-0-0-----0-0-7-9-0-7-0-7-----7-9-------------7-9---7---7-----|
A|---------------------------------------------------------------------|
E|---------------------------------7-7-----7-7-----7-7-----7---7-------|

                                     G5  F5  Em
e|------------------------------------------------|
B|------------------------------------------------|
G|-------------7-6--------------------------------|
D|-----7-9-------------7-9---7---7-55555-333-222--|
A|-0-0-----0-0-----0-0-----0---0---55555-333-222--|
E|---------------------------------33333-111-000--|
                                   ^PM-^ ^distort^
Intro part 2:
Guitar 1: Rhythm
         D5                B5              A5                G5
e|---------------------------------------------------------------------|
B|---------------------------------------------------------------------|
G|-7777777777777777----------------------------------------------------|
D|-7777777777777777-9999999999999999-7777777777777777-5555555555555555-|
A|-5555555555555555-9999999999999999-7777777777777777-5555555555555555-|
E|------------------7777777777777777-5555555555555555-3333333333333333-|


Guitar 2: Lead
(wah-wah)
e|-------------------------|
B|-------------------------|
G|---------7h6p7-----------| (repeat 3x)
D|--7-9--7--------7-9--7-7-|
A|-------------------------|
E|-------------------------|

e|---------|
B|---------|
G|---------|
D|-333-222-|
A|-333-222-|
E|-111-000-|

Verse 1.1: 
D-Bm-A-G (Rhythm Guitars)
D5-B5-A5-G5 (Lead Guitars)
Landscapes in the wild
Upon a shore of a sea open wide

(pagkatapos)
e|---------|
B|---------|
G|---------|
D|-333-222-|
A|-333-222-|
E|-111-000-|

Verse 1.2:
D-Bm-A-G (Rhythm Guitars)
D5-B5-A5-G5 (Lead Guitars)

The great escape from yor wife
She's the best mistake of your life

(pagkatapos)
e|---------|
B|---------|
G|---------|
D|-333-222-|
A|-333-222-|
E|-111-000-|

Refrain:
A5 B5     C5
   Always starts when you cry
A5 B5     C5
   Never ends with a smile
A5 B5     C5                      D5
   All you've said was a big, big lie

Before Chorus:
    F5 Em
e|---------|
B|---------|
G|---------|
D|-333-222-|
A|-333-222-|
E|-111-000-|

Chorus:
D        F#m              G
  On the wings of love we falter
D        F#m              G
  A day with you a big disaster
D        F#m              G
  Soon forever will be over
        Em-F#m-G        A
  How i wish......How i wish

After Chorus:
    F5 Em
e|---------|
B|---------|
G|---------|
D|-333-222-|
A|-333-222-|
E|-111-000-|

(Repeat Intro part 2)

Verse 2.1:
(use verse 1 chords)

Never has a sweet november
All i had was a dark october

(pagkatapos)
e|---------|
B|---------|
G|---------|
D|-333-222-|
A|-333-222-|
E|-111-000-|

Verse 2.2:
(use verse 1 chords)

For a while i wanted to die
But i said why oh why

(pagkatapos)
e|---------|
B|---------|
G|---------|
D|-333-222-|
A|-333-222-|
E|-111-000-|

Refrain:
A5 B5     C5
   Always starts when you cry
A5 B5     C5
   Never ends with a smile
A5 B5     C5                      D5
   All you've said was a big, big lie

Before Chorus:
    F5 Em
e|---------|
B|---------|
G|---------|
D|-333-222-|
A|-333-222-|
E|-111-000-|

Chorus:
D        F#m              G
  On the wings of love we falter
D        F#m              G
  A day with you a big disaster
D        F#m              G
  Soon forever will be over
        Em-F#m-G        A
  How i wish......How i wish

(no after chorus)
(drums: tik-tik-tik-tik-tik-tik...heh)

Outro: 
Guitar 1: Chords lng po (D-A-Bm-G)

Guitar 2:
(clean)
e|-----------------------------------------------------------------------------------|
B|-----------------------------------------------------------------------------------|
G|-----------------------------------------------------------------15-14-------------|
D|--------12-11----------11-------12-11----------11-------12-11----------14-12-11----|
A|--12-14-------12-14-12----12-14-------12-14-12----12-14-------12----------------12-|
E|-----------------------------------------------------------------------------------|

    F5 Em
e|---------|
B|---------|
G|---------|
D|-333-222-|
A|-333-222-|
E|-111-000-|

(wah-wah effects atsaka distortion kung gusto nyo...)
e|-----------15-14-----------------------15-14-----------------------15-14----------15-14----|
B|-15~-15/17-------15/17-15--15/17-15/17-------15/17-15--15/17-15/17-------15/17-15-------15-|
G|-------------------------------------------------------------------------------------------|
D|-------------------------------------------------------------------------------------------|
A|-------------------------------------------------------------------------------------------|
E|-------------------------------------------------------------------------------------------|

    F5 Em
e|---------|
B|---------|
G|---------|
D|-333-222-|
A|-333-222-|
E|-111-000-|

(wah-wah)
e|---------------------15-14-------------15-14-|
B|-15~-15~-15~-15~-------15~-15~-15~-15~-------|
G|---------------------------------------------|
D|---------------------------------------------| ~ = lagyan ng effects
A|---------------------------------------------|
E|---------------------------------------------|

(wah-wah)
e|----------------15-14---20b21-|
B|15~-15~-15~-15~---------------|
G|------------------------------| ~ = lagyan ng effects
D|------------------------------|
A|------------------------------|
E|----------------------3-------|

Hale ROCKZ!!

| /  slide up
| \  slide down
| h  hammer-on
| p  pull-off
| ~  vibrato
| +  harmonic
| x  Mute note
===============================================================================
Show more