Wishing by Hale

Tabbed by:Rommel G. Albay From Davao City
Tabbed last:December 4, 2005
Email:matthew_wizzy@yahoo.com
Tuning:Standard

Instrumental
G|----------------------------666----------------00000000--------|
D|----------------999999999999---7777777777777999----------------|
A|5555555555555777---------------------------------------888877--|
E|---------------------------------------------------------------|

Verse
G|---------------------------------------------------------------|
D|---------------------------------------------------------------|
A|-5--7-2--4-0--2------------------------------------------------|
E|----------------3--111100--------------------------------------|

G|---------------------------------------------------------------|
D|---------------------------------------------------------------|
A|-5--7-2--4-0--2------------------------------------------------|
E|----------------3--111100--------------------------------------|

Refrain
G|---------------------------------------------------------------|
D|---------------------------------------------------------------|
A|---------33333333---------33333333---------33333333------------|
E|1--1-111---------1--1-111---------1--1-111---------------------|

G|---------------------------------------------------------------|
D|---------------------------------------------------------------|
A|55555555-888877------------------------------------------------|
E|---------------------------------------------------------------|

Chorus
G|---------------------------------------------------------------|
D|---------4444444455555555-7--7755454---------------------------|
A|5--5-5555------------------------------------------------------|
E|---------------------------------------------------------------|(3x)

G|---------------------------------------------------------------|
D|2-4-5----5/7---------------------------------------------------|
A|-----------------888877----------------------------------------|
E|---------------------------------------------------------------|

Verse2

G|---------------------------------------------------------------|
D|---------------------------------------------------------------|
A|-5--7-2--4-0--2------------------------------------------------|
E|----------------3--111100--------------------------------------|

G|---------------------------------------------------------------|
D|---------------------------------------------------------------|
A|-5--7-2--4-0--2------------------------------------------------|
E|----------------3--111100--------------------------------------|

Refrain
G|---------------------------------------------------------------|
D|---------------------------------------------------------------|
A|---------33333333---------33333333---------33333333------------|
E|1--1-111---------1--1-111---------1--1-111---------------------|

G|---------------------------------------------------------------|
D|---------------------------------------------------------------|
A|55555555-888877------------------------------------------------|
E|---------------------------------------------------------------|

Chorus
G|---------------------------------------------------------------|
D|---------4444444455555555-7--7755454---------------------------|
A|5--5-5555------------------------------------------------------|
E|---------------------------------------------------------------|(3x)

G|---------------------------------------------------------------|
D|2-4-5----5/7---------------------------------------------------|
A|---------------------------------------------------------------|
E|---------------------------------------------------------------|

Intstrumental Break
G|---------------------------------------------------------------|
D|---------------------------------------------------------------|
A|-5--7-2--4-0--2------------------------------------------------|
E|----------------3--111100--------------------------------------|

Along with the adlib
G|----------------------------666----------------00000000--------|
D|----------------999999999999---7777777777777999----------------|
A|5555555555555777---------------------------------------888877--|
E|---------------------------------------------------------------|(2x)

Ending
G|---------------------------------------------------------------|
D|---------------------------------------------------------------|
A|888877--888877--888877--5--------------------------------------|
E|---------------------------------------------------------------|
Show more