Song: Wishing
Artist: Hale
Album: Hale
Track number: 5
Posted on: December 12, 2005
Last updated: December 4, 2006

hi!

This is just a simple bass tab

by the way this is my 1st tym to submit a tab
paki rate nlng po mga pre..

tabbed by: aL eNrIcO G.  rIveRa

Legazpi City

INTRO:

guitar solo intro.

then bass comes in..

G----------------------------------------------------------------------------------------|
D----------------------------------------------------------------------------------------|
A-------------------5-5-5-5-5-5-5-5-5-5-5-5-5--------------------------------------------|
E----1-1-1-1-0-0------------------------------5-5-5/7-7-7-7-7-7-7-7-7-7-7-7-7-7-7/9-9-9--|

G-------------------------------------------------------------------------------|
D-------------------------------------------------------------------------------|
A-------------------------------------------------------------------------------|
E-\5-5-5-5-5-5-5-5-5-5-5-5-5/7-7\3-3-3-3-3-3-3-3--1-1-1-1-0-0-------------------|

Verse I:
G-------------------------------------------------------------------------------------------------------------------------|
D-------------------------------------------------------------------------------------------------------------------------|
A-----5-----------------------------------------------------------5-------------------------------------------------------|
E----------5--7--------9\5---------7\3----1-1-1-1-0-0------------------5--7--------9\5----------7\3----1-1-1-1-0-1/8\1----|


Pre Chorus:
G----------------------------------------------------------------------------------------------------------------------|
D----------------------------------------------------------------------------------------------------------------------|
A--------------3---3-3-5-5---------------3---3-3-5-5-----------------3--3-3-3--3-3-3-5-5-5-5-5-5-5---------------------|
E--1-1--1-h3-----------------0-1-1--1-h3-----------------0-1-1--1-h3----------------------------------1-1-1-1-0-1/8\1--|


Chorus:
G------------------------------------------------------------------------------|
D------------------------------------------------------------------------------|
A-5-5-5-5-5-5-5/9-9-9-9-9-9-9-9-9-10-10-10-10-10-10-10-10-12-12-10-10-12-10-9--|
E------------------------------------------------------------------------------|

G------------------------------------------------------------------------------|
D------------------------------------------------------------------------------|
A-5-5-5-5-5-5-5/9-9-9-9-9-9-9-9-9-10-10-10-10-10-10-10-10-12-12-10-10-12-10-9--|
E------------------------------------------------------------------------------|

G------------------------------------------------------------------------------------------------------------------------|
D------------------------------------------------------------------------------------------------------------------------|
A-5-5-5-5-5-5-5/9-9-9-9-9-9-9-9-9-10-10-10-10-10-10-10-10-12-12-10-10-12-9/12\0------------------------------------------|
E---------------------------------------------------------------------------------------------------------0--2--3-----5--|

Pre Verse II (instrumental)
G---------------------------------------------------------------------------------------------|
D---------------------------------------------------------------------------------------------|
A--------------------5-5-5-5-5-5-5-5-5-5-5-5-5------------------------------------------------|
E----1-1-1-1-0-0---------------------------------5-5-5-5/7-7-7-7-7-7-7-7-7-7-7-7-7-7-7/9-9-9--|

G-------------------------------------------------------------------------------|
D-------------------------------------------------------------------------------|
A-------------------------------------------------------------------------------|
E-9\5-5-5-5-5-5-5-5-5-5-5-5-5/7-7\3-3-3-3-3-3-3-3--1-1-1-1-0-0------------------|

Verse II:
G-------------------------------------------------------------------------------------------------------------|
D-------------------------------------------------------------------------------------------------------------|
A---5---------------------------------------------------5-----------------------------------------------------|
E-------5--7--------9\5----------7\3----1-1-1-1-0-0---------5--7--------9--\5----------7\3----1-1-1-1-0-1/8\1-|

Pre Chorus (same as before)
G------------------------------------------------------------------------------------------------------------------------|
D------------------------------------------------------------------------------------------------------------------------|
A--------------3---3-3-5-5---------------3---3-3-5-5-----------------3--3-3-3--3-3-3-5-5-5-5-5-5-5-----------------------|
E--1-1--1-h3------------------1-1--1-h3------------------1-1--1-h3--------------------------------------1-1-1-1-0-1/8\1--|

Chorus:
G------------------------------------------------------------------------------|
D------------------------------------------------------------------------------|
A-5-5-5-5-5-5-5/9-9-9-9-9-9-9-9-9-10-10-10-10-10-10-10-10-12-12-10-10-12-10-9--|
E------------------------------------------------------------------------------|

G------------------------------------------------------------------------------|
D------------------------------------------------------------------------------|
A-5-5-5-5-5-5-5/9-9-9-9-9-9-9-9-9-10-10-10-10-10-10-10-10-12-12-10-10-12-10-9--|
E------------------------------------------------------------------------------|

G---------------------------------------------------------------------------------------------------------------------------==--|
D-------------------------------------------------------------------------------------------------------------------------------|
A-5-5-5-5-5-5-5/9-9-9-9-9-9-9-9-9-10-10-10-10-10-10-10-10-12-12-10-10-12-9------------------------------------------------------|
E-------------------------------------------------------------------------------------------------1/12\1-------0--2--3-----5----|


adlib part and ending:
G-----------------------------------------------------------------|
D-----------------------------------------------------------------|
A---5-------------------------------------------------------------|
E----------5--7--------9\5----------7\3----1-1-1-1-0-0------------|

G--------------------------------------------------------------------------|
D--------------------------------------------------------------------------|
A---5-5-5-5-5-5-5-5-5-5-5-5-5----------------------------------------------|
E-----------------------------5-5-5-5/7-7-7-7-7-7-7-7-7-7-7-7-7-7-7/9-9-9--|

G--------------------------------------------------------------------------|
D--------------------------------------------------------------------------|
A--------------------------------------------------------------------------|
E-9\5-5-5-5-5-5-5-5-5-5-5-5-5/7-7\3-3-3-3-3-3-3-3--1-1-1-1-0-0-------------|

G--------------------------------------------------------------------------|
D--------------------------------------------------------------------------|
A---5-5-5-5-5-5-5-5-5-5-5-5-5----------------------------------------------|
E-----------------------------5-5-5-5/7-7-7-7-7-7-7-7-7-7-7-7-7-7-7/9-9-9--|

G-----------------------------------------------------------------------------------------------------------|
D-----------------------------------------------------------------------------------------------------------|
A-----------------------------------------------------------------------------------------------------------|
E-\5-5-5-5-5-5-5-5-5-5-5-5-5/7-7\3-3-3-3-3-3-3-3--1-1-1-1-0-1/12\1---1-1-1-1-0-1///12-13-13-13-13-12---10-\1|

Pakingan nyo nlng po ung song para magets nyo..hehe..
Simple lng nman to

well dats it!

Sorry agen sa mga mali mali..

add me pala sa friendster: al_martela_spurs@yahoo.com

add nyo din banda nmin: odo_switched@yahoo.com.ph

tnx! Sayonara!
Show more