Title: Wishing
Artist: Hale
Album: Hale
Transcribed by: Dave Mac
E-mail: satchboogie314@yahoo.com


Ok. . . first
i'll explain my opinion about playing the bass of this song.
i think he uses a 5-stringed bass guitar with BEADG (low to high)
 tuning.
since most of us don't have a 5-stringed bass guitar
i tabbed the bass with a 4-stringed bass guitar with drop-d tuning
DADG (low to high).
at the refrain part. .
there he plays the lowest note of the song, c-note at the 1st fret of
 the
B-string (if you have a 5-stringed bass guitar) at the 2nd bar of the
tablature.

Tama pala. . 
Ung sa verse, meron syang natural harmonic sa 2.25 n fret!!
ang tunog nyan is 2 octaves higher than sa natural harmonic
sa 12 fret. same note lng sila. 

palagay natin bass guitar ito.

+-------|--------|--------|----------
+-------|--------|--------|----------
+-------|--------|--------|----------
+-------|--------|--------|----------
        ^        ^ ^
       1st    2nd  2.25   
      fret    fret  fret    

ok. . cge 2g2g na!! 
drop-d ha!



/  = slide up
\  = slide down
h  = hammer on
p  = pull-off
x  = dead string
[] = natural harmonics


Intro:

   D               Bm               A                G                F
       E     
 
G|---------------|----------------|----------------|----------------|-------------|
D|---------------|----------------|----------------|----------------|-------------|
A|---------------|----------------|----------------|----------------|-------------|
D|---------------|----------------|----------------|----------------|-3-3-3-3-2-2-|

   D                                  Bm 

G|-------------------------------------------------------------------------|
D|-------------------------------------------------------------------------|
A|-------------------------------------------------------------------------|
D|-0-0-0-0-0-0-0-0-0-0-0-0-0-0-/7-7-7-9-9-9-9-9-9-9-9-9-9-9-9-9-9/11-11-11-|

   A                                 G                 F       E

G|-----------------------------------------------------------------|
D|-----------------------------------------------------------------|
A|-----------------------------------------------------8-8-8-8-7-7-|
D|-7-7-7-7-7-7-7-7-7-7-7-7-7-7-9-9-9-5-5-5-5-5-5-5-5---------------|


Verse 1:

   D                 Bm              A             G               F  
     E

G|----[7]----------|---[4]---------|-----[7]-----|-------[5]------------------------|
D|--------[7]------|-------[4]-----|---------[7]-|-----------[4]--------------------|
A|-5-------------0-|-2-----------4-|-0-----------|----x------------8-8-8-8-7-7------|
D|-----------------|---------------|-------------|-5--------------------------------|

   D                           Bm                   A              G  
             F       E

G|------------[5]------------|----[9]-------------|--------[7]---|-------[5]----------------------------|
D|----[2.25]------[4]-[5]----|--------[9]---------|----[7]-------|-----------[4]------------------------|
A|---------------------------|------------[9]-----|--------------|----x------------8-8-8-8-7-/-16-\-----|
D|-0-----------------------7-|-9---------------11-|-7----------9-|-5------------------------------------|


Refrain:

   F        C             F        C

G|----------------------|---------------------------|
D|----------------------|---------------------------|
A|----------3-3-3-3-3---|----------3--3-3-3---------|
D|-3-3--3-5-----------5-|-3-3--3-5----------0-0-2-2-|

   F        C                D                E       F

G|-------------------------------------------------------------|
D|-------------------------------------------------------------|
A|----------3--3-3-5-5-3-3-3-5-5-5-5-5-5-5-5--8-8-8-8-7-/-16-\-|
D|-3-3--3-5----------------------------------------------------|


Chorus:

   D                F#m             G

G|--------------------------------------------------------------------|
D|------------------4-4-4-4-4-4-4-4-5-5-5-5-5-5-5-5/7-7-5-5-4-4-5-4---|
A|-5--5-5-5-5-5-5-5-------------------------------------------------7-|
D|--------------------------------------------------------------------|
 
   D                F#m             G

G|--------------------------------------------------------------------|
D|------------------4-4-4-4-4-4-4-4-5-5-5-5-5-5-5-5/7-7-5-5-4-4-5-4---|
A|-5--5-5-5-5-5-5-5-------------------------------------------------7-|
D|--------------------------------------------------------------------|

   D                F#m             G

G|-----------------------------------------------------------------|
D|------------------4-4-4-4-4-4-4-4-5-5-5-5-5-5-5-5-5-7-7-7-7------|
A|-5--5-5-5-5-5-5-5-------------------------------------------/14\-|
D|-----------------------------------------------------------------|

   E   F#m G    A      F       E

G|---------------------------------|
D|---------------------------------|
A|---------------------------------|
D|-2---4---5----7------3-3-3-3-2-2-|


Interlude:

   D                                  Bm

G|-------------------------------------------------------------------------|
D|-------------------------------------------------------------------------|
A|-------------------------------------------------------------------------|
D|-0-0-0-0-0-0-0-0-0-0-0-0-0-0-/7-7-7-9-9-9-9-9-9-9-9-9-9-9-9-9-9/11-11-11-|

   A                                 G                 F       E

G|-----------------------------------------------------------------|
D|-----------------------------------------------------------------|
A|-----------------------------------------------------8-8-8-8-7-7-|
D|-7-7-7-7-7-7-7-7-7-7-7-7-7-7-9-9-9-5-5-5-5-5-5-5-5---------------|


Verse 2:

   D                               Bm                   A              
  

G|------------[5]----------------|----[9]-------------|---------[7]----|------[7]--[5]------------------|
D|----[2.25]------[4]-[5]--------|--------[9]---------|-----[7]--------|-[7]-----------[4]--------------|
A|------------------------[5]----|------------[9]-----|----------------|--------------------------------|
D|-0---------------------------7-|-9---------------11-|-7------------9-|--5-----------------3-3-3-3-2-2-|

   D               Bm                   A                 G

G|----[7]--------|----[9]-------------|---------[7]----|------[7]--[5]-----------------------|
D|--------[7]----|--------[9]---------|-----[7]--------|-[7]-----------[4]-------------------|
A|-5-------------|------------[9]-----|----------------|--------------------8-8-8-8-7-/-16-\-|
D|-------------7-|-9---------------11-|-7------------9-|--5----------------------------------|


Refrain:

   F        C             F        C

G|----------------------|---------------------------|
D|----------------------|---------------------------|
A|----------3-3-3-3-3---|----------3--3-3-3---------|
D|-3-3--3-5-----------5-|-3-3--3-5----------0-0-2-2-|

   F        C                D                E       F

G|-------------------------------------------------------------|
D|-------------------------------------------------------------|
A|----------3--3-3-5-5-3-3-3-5-5-5-5-5-5-5-5--8-8-8-8-7-/-16-\-|
D|-3-3--3-5----------------------------------------------------|


Chorus:

   D                F#m             G

G|--------------------------------------------------------------------|
D|------------------4-4-4-4-4-4-4-4-5-5-5-5-5-5-5-5/7-7-5-5-4-4-5-4---|
A|-5--5-5-5-5-5-5-5-------------------------------------------------7-|
D|--------------------------------------------------------------------|

   D                F#m            

G|--------------------------------------------------------------------|
D|------------------4-4-4-4-4-4-4-4-5-5-5-5-5-5-5-5/7-7-5-5-4-4-5-4---|
A|-5--5-5-5-5-5-5-5-------------------------------------------------7-|
D|--------------------------------------------------------------------|

   D                F#m            

G|-----------------------------------------------------------------|
D|------------------4-4-4-4-4-4-4-4-5-5-5-5-5-5-5-5-5-7-7-7-7------|
A|-5--5-5-5-5-5-5-5-------------------------------------------/14\-|
D|-----------------------------------------------------------------|

   E   F#m G    A

G|----------------|
D|----------------|
A|----------------|
D|-2---4---5----7-|

Legend:

Before the guitar solo, i think he uses 2-handed technique to
 synchronize
the bass line and a simple bass melody.
The LEFT hand fingers just "tap/hammer-on from nowhere" the bass line &
the RIGHT hand fingers, mainly the index & middle, tap the simple
 melody.
Play first that open low D note and then immediately tap all the notes
after that open low D.

RIGHT index finger tap  =   e.g. <19>
RIGHT middle finger tap = {fret}  e.g. (19)


Bridge:

   D

G|---------------------------------------------------------------|
D|------(19)----(19)----(19)----(19)----(19)----(19)----(19)-----|
A|----------<19>----<19>----<19>----<19>----<19>----<19>----<19>-|
D|-0-----------------------------------------------------7-------|

    Bm
   
G|------------------------------------------------------------------|
D|-(19)----(19)----(19)----(19)----(19)----(19)----(19)----(19)-----|
A|-----<19>----<19>----<19>----<19>----<19>----<19>----<19>----<19>-|
D|--9-------------------------------------------------------11------|

    A
  
G|------------------------------------------------------------------|
D|-(19)----(21)----(19)----(21)----(19)----(21)----(19)----(21)-----|
A|-----<19>----<19>----<19>----<19>----<19>----<19>----<19>----<19>-|
D|--7-------------------------------------------------------9-------|

     G                               F       E

G|-----------------------------------------------|
D|-(19)----(21)----(19)----(21)------------------|
A|-----<19>----<19>----<19>----<19>--------------|
D|--5--------------------------------3-3-3-3-2-2-|
  

Guitar Solo:

   D                                  Bm

G|-------------------------------------------------------------------|
D|-------------------------------------------------------------------|
A|-------------------------------------------------------------------|
D|-0-0-0-0-0-0-0-0-0-0-0-0-0-0-/7-7-7-9-9-9-9-9-9-9-9-9-9-9-9-9-9/11-|

   A                           G                       F       E      
  

G|-----------------------------------------------------------------|
D|-----------------------------------------------------------------|
A|-----------------------------------------------------------------|
D|-7-7-7-7-7-7-7-7-7-7-7-7-7-7-9-9-9-5-5-5-5-5-5-5-5---3-3-3-3-2-2-|

   D                               Bm                        

G|----------------------------------------------------------------------|
D|----------------------------------------------------------------------|
A|----------------------------------------------------------------------|
D|-0-0-0-0-0-0-0-0-0-0-0-0-0-7-7-7-9-9-9-9-9-9-9-9-9-9-9-9-9-9/11-11-11-|

   A                               G

G|-------------------------------------------------|
D|-------------------------------------------------|
A|-------------------------------------------------|
D|-7-7-7-7-7-7-7-7-7-7-7-7-7-9-9-7-5-5-5-5-5-5-5-5-|


Outro:

   F           E         F       E         F           E

G|------------------------------------------------------------|
D|------------------------------------------------------------|
A|------------------------------------------------------------|
D|-15-15-15-15-14-14/2---3-3-3-3-2-2//14---15-15-15-15-14-14\-|

   D

G|----------------------------------------------------|
D|----------------------------------------------------|
A|----------------------------------------------------|
D|-0--------------------------------------------------|
Show more