Intro
D|------------------------------------------------------------------------
A|------------------------------------------------------------------------
F|------7--------------5---------------------------------------------------
C|-2-5-7--5-4--2-5--5--5----------------------------------------------------------
G|-2-5-5--5-4--2-5--3--5-----------------------------------------------------------
D|-0-3----3-2---0-3-----3---------------------------------------------------------

Solo da Intro, Guitarra 1
D|------------------------------------------------------------------------
A|------------------------------------------------------------------------
F|-------11-12-14-12-11~~~~-12-11-----11-12-14-12-11-12-11-12~~~~------
C|---14~~~~-----------------------------14~~~~----------------------------------------
G|------------------------------------------------------------------------
D|------------------------------------------------------------------------

Guitarra 2
D|------------------------------------------------------------------------
A|-------9-10-12-10-9~~~~-10-9-----9-10-12-10-9-10-9-10~~~~----
F|---12~~~~-------------------------12~~~~-------------------------
C|------------------------------------------------------------------------
G|------------------------------------------------------------------------
D|------------------------------------------------------------------------

Riff 1: Parte 1
D|------------------------------------------------------------------------
A|------------------------------------------------------------------------
F|------------------------------------------------------------------------
C|--2-----------2------2------2------2------2------5--7--8--7-------------
G|--2-----------2------2------2------2------2------5--7--8--7-------------
D|--0-0-0-0-- -0-0-0-0-0-0-0-0-0-0-0-0-0-0-0-3--5--6--5------------                          2x

Halford come?a cantando a partir daqui.
1? Estrofe
Parte 2
D|------------------------------------------------------------------------
A|------------------------------------------------------------------------
F|------------------------------------------------------------------------
C|--2---------2------2------2------2-----2-------5-4-5-4-2--------------------------
G|--2-------- 2------2------2------2-----2-------5-4-5-4-2---------------------------
D|--0-0-0-0-0-0-0-0-0-0-0-0-0-0-0-0-0-0-0-3-2-3-2-0----------------


D|------------------------------------------------------------------------
A|------------------------------------------------------------------------
F|------------------------------------------------------------------------
C|-------------2------2------2------2------2------5--7--8--7-------------
G|-------------2------2------2------2------2------5--7--8--7-------------
D|---0-0-0-- -0-0-0-0-0-0-0-0-0-0-0-0-0-0-0-3--5--6--5------------

 
2? Estrofe
Riff 2 
D|------------------------------------------------------------------------
A|------------------------------------------------------------------------
F|-------------------------------------------------7-6-7-6--------------------
C|--7---------7-----7---------7----7--------7---5-4-5-4-------------------
G|--7---------7-----7---------7----7--------7-----------------------------
D|--5-5-5-5-5-5---5-5-5-5--5-5-5-5-5-5-5-5---------------------------

D|------------------------------------------------------------------------
A|------------------------------------------------------------------------
F|------------------------------------------------------------------------
C|--2-----------2------2------2------2------2------5--7--8--7-------------
G|--2-----------2------2------2------2------2------5--7--8--7-------------
D|--0-0-0-0-- -0-0-0-0-0-0-0-0-0-0-0-0-0-0-0-3--5--6--5------------

D|------------------------------------------------------------------------
A|------------------------------------------------------------------------
F|-------------------------------------------------5-7--------------------
C|--7---------7-----7---------7----7--------7---5-7---------------------
G|--7---------7-----7---------7----7--------7---3-5-------------------------
D|--5-5-5-5-5-5---5-5-5-5--5-5-5-5-5-5-5----------------------------

D|------------------------------------------------------------------------
A|------------------------------------------------------------------------
F|-------------------------------------------------------------------------
C|------------------------------------------------------------------------
G|--7-5-4----4-----------------------------------------------------------------
D|----------7----7--5-3--0-------------------------------------------------------

Refr?o
D|------------------------------------------------------------------------
A|------------------------------------------------------------------------
F|-------------------------------------------------------------------------
C|-----8-----------5------5-7-8-----------5-----------------------------------
G|-----8-----------5------5-7-8-----------5--------------------------------------
D|-----6-0-0-0-0-3-0-0-3-5-6-0-0-0-0-3------------------------------------        



D|------------------------------------------------------------------------
A|------------------------------------------------------------------------
F|-------------------------------------------------------------------------
C|-----8-----------5------5-7-8----------------------------------------------
G|-----8-----------5------5-7-8-----------7-5-4----4-----------------------
D|-----6-0-0-0-0-3-0-0-3-5-6-0-0-0-0---------7----7--5-3--0-----------

Repete Riff 1 ? Parte 1
3? Estrofe (repete Riff 1 ? Parte 2)
4? Estrofe ? Riff 2
Refr?o

Essa parte antecede o solo:
D|------------------------------------------------------------------------
A|------------------------------------------------------------------------
F|--3-7-3-7-3-7-3---6-9-6-9-11--12----------------------------------------------------
C|--3-7-3-7-3-7-3---6-9-6-9-11--12----------------------------------------------------------
G|--2-5-2-5-2-5-2---4-7-4-7-9---10---------------------------------------------------------
D|--------------------------------------------------------------------------

Solo? N?o tenho no??o...

Base do Solo (vai fazendo at? acabar o solo)
D|------------------------------------------------------------------------
A|------------------------------------------------------------------------
F|-------------------------------------------------------------------------
C|--4-----------7--------5----------------------------------------------------
G|--4-----------7--------5---------------------------------------------------
D|--2-0-0-0-0-5-0-0-0-3-------------------------------------------------------------
  
Guitarra 1 (eu acho que ? isso...)                     
D|------------------------------------------------------------------------
A|------------------------------------------------------------------------
F|-------11-12-14-12-11~~~~-12-11-----11-12-14-12-11-12-11-12~~~~------
C|---14~~~~-----------------------------14~~~~----------------------------------------
G|------------------------------------------------------------------------
D|------------------------------------------------------------------------

D|------------------------------------------------------------------------
A|------------------------------------------------------------------------
F|----11-12-14-12-11~~~~-12-11---11-12-14-12-11/12-14-12/14-16-14/16-18-16/18-20
C|-14~~~~---------------------------14~~~~----------------------------------------
G|------------------------------------------------------------------------
D|------------------------------------------------------------------------





D|------------------------------------------------------------------------
A|------------------------------------------------------------------------
F|--18/20-21-20-21~~~~--------------------------------------------------------------------
C|-------------------------------------------------------------------------
G|------------------------------------------------------------------------
D|------------------------------------------------------------------------

Guitarra 2
D|------------------------------------------------------------------------
A|-------9-10-12-10-9~~~~-10-9-----9-10-12-10-9-10-9-10~~~~----
F|---12~~~~-------------------------12~~~~-------------------------
C|------------------------------------------------------------------------
G|------------------------------------------------------------------------
D|------------------------------------------------------------------------

D|------------------------------------------------------------------------
A|--9-10-12-10-9~~~~-10-9-----9-10-12-10-9/10-12-10/12-14-12/14-15-14/15-15-17/15~~
F|12~~~~-------------------------12~~~~-------------------------
C|------------------------------------------------------------------------
G|------------------------------------------------------------------------
D|------------------------------------------------------------------------      

Riff 1 ? Parte 1
5? Estrofe (Riff 1- Parte 2)
6? Estrofe ? Riff 2
Refr?o
Fim!!!
Show more