• Song:

    Sarah Smile

  • Artist:

    Hall And Oats

Sara Smile - Hall & Oates
Guitar Intro
rusty1491@hotmail.com
/ - Slide up
\ - Slide down

--------------------------------------13-|
13/15\13-10------------11/13\11-10/11----|
-------------12--10----------------------|
--------------------12-------------------|
-----------------------------------------|
-----------------------------------------|


-----------------------------------------|
13/15\13/15\13--10-----------------------|
-------------------12/14\10-----10/12\10-|
-----------------------------12----------|
-----------------------------------------|
-----------------------------------------|

------------------------------13--13/17--|
-----------13--13--15--13/15-------------|
----12/14--------------------------------|
12---------------------------------------|
-----------------------------------------|
-----------------------------------------|
Show more