• Song:

    Blood Bound

  • Artist:

    Hammerfall

  • Album:

    Chapter V: Unbent Unbow...

Hammerfall
Blood Blound
New Album
Tabbed By Kevin Cruz

Standard tunning

Intro Lead 2x     first time in Parenthesis        
|----------------------------------------------------------------------|
|----------------------------------------------------------------------|
|-9-9--12-11-12-9--9--12-11-12-11--8--8--8-9-11--12--11-9--14--(12-11)-|
|----------------------------------------------------------------------|
|----------------------------------------------------------------------|
|----------------------------------------------------------------------|

|-------------------------------------------------|
|-------------------------------------------------|
|-------------------------------------------------|
|-----------------------------------------------7-|
|-2-2------2------2-2------2-5-4-2-2------2-----5-|
|-0-0-0-0--0-0-0--0-0-0-0--0-3-2-0-0-0-0--0-0-0---|
      . .    . .      . .            . .    . . 

|-------------------------------------------------|
|-------------------------------------------------|
|-------------------------------------------------|
|-----------------------------------------------7-|
|-2-2------2------2-2------2-5-4-2-2------2-----5-|
|-0-0-0-0--0-0-0--0-0-0-0--0-3-2-0-0-0-0--0-0-0---|
      . .    . .      . .            . .    . . 

|----------------------------------------------|
|----------------------------------------------|
|----------------------------------------------|
|----------------------------------------5--4--|
|-2-2------2------2-2------2-5-4-2-2-----3--2--|
|-0-0-0-0--0-0-0--0-0-0-0--0-3-2-0-0-0-0-------|
      . .    . .      . .            . .  


|-------------------------------------------------|
|-------------------------------------------------|
|-------------------------------------------------|
|-----------------------------------------------7-|
|-2-2------2------2-2------2-5-4-2-2------2-----5-|
|-0-0-0-0--0-0-0--0-0-0-0--0-3-2-0-0-0-0--0-0-0---|
      . .    . .      . .            . .    . . 

|-------------------------------------------|
|-------------------------------------------|
|-------------------------------------------|
|-------------------------------------5--4--|
|-2-2------2------2-2------2-5-4-2-2--3--2--|
|-0-0-0-0--0-0-0--0-0-0-0--0-3-2-0-0--------|
      . .    . .      . .             

Before Chorus
|----------------------------------------------|
|----------------------------------------------|
|----------------------------------------------|
|---------------5--4-----4-----4-----4---------|
|-5-----5----5--3--2-2-2-2-2-2-2-2-2-2-2-2-2---|
|-3-----2----3---------------------------------|
                     . .   . .   . . . . . . 

Chorus
|------------------------|------------------------|
|------------------------|------------------------|
|------------------------|------------------------|
|---------5--4--54-------|---------5--4--5--------|
|-5-4-2---3--2--32-2-2-2-|-5-4-2---3--2--3--5-4-2-|
|-3-2-0------------------|-3-2-0------------3-2-0-|
                 . . . .   

|-------------------------------------------------|
|-------------------------------------------------|
|-------------------------------------------------|
|-----------------------------------------------7-|
|-2-2------2------2-2------2-5-4-2-2------2-----5-|
|-0-0-0-0--0-0-0--0-0-0-0--0-3-2-0-0-0-0--0-0-0---|
      . .    . .      . .            . .    . . 

|----------------------------------------------|
|----------------------------------------------|
|----------------------------------------------|
|----------------------------------------5--4--|
|-2-2------2------2-2------2-5-4-2-2-----3--2--|
|-0-0-0-0--0-0-0--0-0-0-0--0-3-2-0-0-0-0-------|
      . .    . .      . .            . .          

|----------------------------------------------|
|----------------------------------------------|
|----------------------------------------------|
|---------------5--4-----4-----4-----4---------|
|-5-----5----5--3--2-2-2-2-2-2-2-2-2-2-2-2-2---|
|-3-----2----3---------------------------------|
                     . .   . .   . . . . . . 

Chorus
|------------------------|------------------------|
|------------------------|------------------------|
|------------------------|------------------------|
|---------5--4--54-------|---------5--4--5--------|
|-5-4-2---3--2--32-2-2-2-|-5-4-2---3--2--3--5-4-2-|
|-3-2-0------------------|-3-2-0------------3-2-0-|
                 . . . .

|---------------------------------------------|
|---------------------------------------------|
|---------------------------------------------|
|-------------7-6-----------7-6-----------7---|
|-4-----------5-4-----------5-4-----------5-4-|
|-2-2-2-2-2-2-----2-2-2-2-2-----2-2-2-2-2---2-|
  . . . . . .     . . . . .     . . . . .

|---------------------------------------------|
|---------------------------------------------|
|---------------------------------------------|
|-------------7-6-----------7-------------7---|
|-4-----------5-4-----------5-6-----------5-5-|
|-2-2-2-2-2-2-----2-2-2-2-2---4-4-4-4-4-4---3-|
  . . . . . .     . . . . .     . . . . .

and that's all i can figure out
Show more