• Song:

    Imperial

  • Artist:

    Hammerfall

  • Album:

    Chapter V: Unbent Unbow...

HAMMERFALL IMPERIAL
Tabbed by: Kruso


e|--1-0-------------------------1-0------------------|
B|------3---------------------------3----------------|
G|----------5-4-2-1-2-4---2-4-5-------5-4-2-4-5-4-2--|
D|--0---------------------------0--------------------|
A|----------0-------------0-----------0-----------0--|
E|----------------0-------------------------0--------|


e|--1-0-------------------------1-0------------------|
B|------3---------------------------3----------------|
G|----------5-4-2-1-2-4---2-4-5-------5-4-2-4-5-1-2--|
D|--0---------------------------0--------------------|
A|----------0-------------0-----------0-----------0--|
E|----------------0-------------------------0--------|


e|-5-3-------5-3-------------------4-5-----|
B|-----6-5--------6-5---4------5-5---------|
G|-------------------------5-4-------------|
D|-0---------0-----------------------------|
A|-------0----------0---2------------0-----|
E|-----------------------------0-----------|


e|------------------------------------------------|
B|-0-1-3-3-1-0-1-3-1-0---------0-1-1-0-1-3-1-0----|
G|---------------------2-0---2-----------------2--|
D|------------------------------------------------|
A|-------0-----3-------------------------0-----0--|
E|-3-----------------3-----1-------3--------------|


e|-----------------------------------------0-----------|
B|-0-1-3-3-1-0-1-3-1-0-------0-1-----0-1-0-------------|
G|---------------------2-0---------2---------1-2(/13)--|
D|-----------------------------------------------------|
A|-------0-----3-----------0-------------------0-------|
E|-3-----------------3-----------1-------3-0-0---------|

all x 2

(/13) Only in the last verse at the end of the song..

Note: Slide to 13'th fret, pick it once and let it gently fade out,  litle thing iv 
added my self.. thougth it sounded cool that way..

Hope this helps some New beginners,  was my first song to learn :)
Show more