• Song:

    Last Man Standing

  • Artist:

    Hammerfall

  • Album:

    Last Man Standing

I have figured it out for standard tuning(EADEGBe)

Solo


-----------------------------------------------------------------------|
-----------------------------------------------------------------------|
-10---10-12--13---15br--13-15-------10-12-13---12--13-12h13p12--10-----|
-------------------------------13--------------------------------------|
-----------------------------------------------------------------------|
-----------------------------------------------------------------------|


--------------------------------------------15-16-18-18br-16--15-------|
-------------13--------14--------16------------------------------------|
--10-12-13-------12h13----12h13------12h13-----------------------------|
-----------------------------------------------------------------------|
-----------------------------------------------------------------------|
-----------------------------------------------------------------------|
Show more