This is the first tab that I've done, hope it will help you :)
Should be pretty accurate since Thomas Silver himself learned me this song.

Want to see me play it? Check out my cover of the whole song, easier to understand the tab then :)
http://www.youtube.com/watch?v=zCRPNuYqjOc&lc=x-J-PcgUmWb8jOO189RqnpS0tqdtGcx-
LqPqG7jMKrs&feature=inbox

Dreamin' in a Casket by Hardcore Superstar

Standard tuning

The First Intro Riff, Split Into 2 Parts:

E--------- PART 1 -------------- PLAY THIS 4 TIMES ------------------------------------------------|
B--------------------------------------------------------------------------------------------------|
G--------------------------------------------------------------------------------------------------|
D--------------------------------------------------------------------------------------------------|
A------7-5-7-5-7----7-5-7-5-7----------------------------------------------------------------------|
E------0-0-0-0-0----0-0-0-0-0----6-6-7-------------------------------------------------------------|



E---------- PART 2 -------------------------------------------4:TH TIME----------------------------|
B--------------------------------------------------------------------------------------------------|
G------9-11-12-14-15----9-11-12-14-15----9-11-12-14-15-----------9-8-7-5---------------------------|
D------9-11-12-14-15----9-11-12-14-15----9-11-12-14-15-------------------7-------------------------|
A--------------------------------------------------------------------------------------------------|
E--------------------------------------------------------------------------------------------------|

The Second Intro Riff:

E----------- PLAY THIS 3 TIMES ------------------E---------- 4:TH TIME-----------------------------|
B------------------------------------------------B-------------------------------------------------|
G--------------------10-9-7----------------------G---------------------10-9-7----99999999-7--2-----|
D----2------2-----2--10-9-7----------------------D----2------2-----2---10-9-7----99999999-7--2-----|
A----2------0-----2------------------------------A----2------0-----2-------------------------0-----|
E----0--3-4----3--0---------0-0-000-000-000-000--E----0--3-4----3--0-------------------------------|



The Verse Riff:

E--------------------------------------------------------------------------------------------2-----|
B--------------------------------------------------------------------------------------------3-----|
G---------------------------------------------10-9-7-----------------------------------------2--2--|
D---------------------------------------------10-9-7-----------------------------------------0--2--|
A-----------------7-5----------------------------------------------7-5--------------------------0--|
E----3-0-3--5--0------7--6--7---3-0-3--5--0----------3-0-3--5--0------7--6--7---3-0-3--5--0--------|

E--------------------------------------------------------------------------------------------------|
B--------------------------------------------------------------------------------------------------|
G---------------------------------------------10-9-7----------------------------5--4------4--------|
D---------------------------------------------10-9-7----------------------------------5--(9)-------|
A-----------------7-5----------------------------------------------7-5----------3--2------2--------|
E----3-0-3--5--0------7--6--7---3-0-3--5--0----------3-0-3--5--0------7--6--7---------3--(7)-------|



The Chorus Riff:



E---0-----3------------2------------------------0-----3------------2-------------------------------|
B---0-----3----7--8----3------------------------0-----3----7--8----3-------------------------------|
G---0-----0----7--7----2------5--4------4-------0-----0----7--7----2-------------------------------|
D---2-----0------------0------------5--(9)------2-----0------------0----2-------4-XX-4-XX-4-XX-4-X-|
A---2-----2-------------------3--2------2-------2-----2-----------------0-X-2---2-XX-2-XX-2-XX-2-X-|
E---0-----3-------------------------3--(7)------0-----3--------------------------------------------|
                                                                    Take alook (x02210@1)at my cover to get
   Em (022000@1)   G (320003@1)          D (xx0232@1)                     Em (022000@1)   G (320003@1)          D (xx0232@1) the idea of how to play this.



Outro Lead Guitar:
Played by ear.

If ^^ shows after a note, it means you should do a full bend,
i.e 1st note, hold 15th fret, bend up to 17th, then release the
bend back to 15th.

E--------------------------------------------------------------------------------------------------|
B----15^^15--12-13-------------------15^^15--12-13-13^^--13-12---------------15^^15--12-13---------|
G------------------14------------------------------------------12-14-----------------------14------|
D-----------------------10-9-----------------------------------------------------------------------|
A----------------------------10-7------------------------------------------------------------------|
E--------------------------------------------------------------------------------------------------|

E--------------------------------------------------------------------------------------------------|
B------------------15^^15--12-13-13^^--------------------------------------------------------------|
G--------------------------------------------------------------------------------------------------|
D-----10-9----9------------------------------------------------------------------------------------|
A----------12--------------------------------------------------------------------------------------|
E--------------------------------------------------------------------------------------------------|



This is basically the whole song. The different parts will have the following order:
Intro Riff, Part 1 + Part 2
Second Intro Riff
Verse
Chorus
Intro Riff, Part 1 (played only 3 times, and ends with the last bit of Intro Riff Part 2)
Verse
Chorus
Intro Riff, Part 1
Solo - I haven't tabbed the solo, I played it only by listening to it and tabbing 
it would be very hard. Might update that later!
Chorus 'til the song ends
Outro Riff (comes in one chorus after the solo) - 'til the song ends.

Hope this helped you and please leave me some response about what you think of my 
tab! Easiest way to do that is to visit my 
facebook page, or send a message at my youtube-channel!

http://www.facebook.com/pages/MetalArry24-GuitarDrum-Covers/117817748302128
http://www.youtube.com/user/MetalArry24?feature=mhee
Show more