• Song:

    Qing Fei De Yi

  • Artist:

    Harlem Yu

This is my first time writing a tab, so i hope you'll like it. This is a beautiful song
and i hope you'll enjoy it as much as i do.

Qing Fei De Yi / Harlem Yu
Tab by: Jon Sim

Standard tuning (EADGBe)

Intro:

   C (x32010@1)                G (320003@1)    Am (x02210@1)        F (133211@1)    Em (022000@1)            
e:---0-x-0----0-x-0-|---3-x--0~--0-x-0-|---1-x--0~--0-x-0-|
B:---1-x-1----1-x-1-|---3-x--1~--1-x-1-|---1-x--0~--0-x-0-|
G:---0-x-0----0-x-0-|---0-x--2~--2-x-2-|---2-x--0~--0-x-0-|
D:------------------|------------------|-3----------------|
A:-3--------3-------|--------0~--------|------------------|
E:------------------|-3----------------|--------0~--------|

   F (133211@1)    G (320003@1)           C (x32010@1)                Ce:---1-x--3~--3-x-3-|---0-x-0----0-x-0-|---0-x-0----0-x-0-| (x32010@1)B:---1-x--3~--3-x-3-|---1-x-1----1-x-1-|---1-x-1----1-x-1-|
G:---2-x--0~--0-x-0-|---0-x-0----0-x-0-|---0-x-0----0-x-0-|
D:-3----------------|------------------|------------------|
A:------------------|-3--------3-------|-3--------3-------|
E:--------3~--------|------------------|------------------|

Verse:

   C (x32010@1)                G (320003@1)                Am (x02210@1)
e:---0-x-0----0-x-0-|---3-x-3----3-x-3-|---0-x-0----0-x-0-|
B:---1-x-1----1-x-1-|---3-x-3----3-x-3-|---1-x-1----1-x-1-|
G:---0-x-0----0-x-0-|---0-x-0----0-x-0-|---2-x-2----2-x-2-|
D:------------------|------------------|------------------|
A:-3--------3-------|------------------|-0--------0-------|
E:------------------|-3--------3-------|------------------|

   Em (022000@1)               F (133211@1)                Eme:---0-x-0----0-x-0-|---1-x-1----1-x-1-|---0-x-0----0-x-0-| (022000@1)B:---0-x-0----0-x-0-|---1-x-1----1-x-1-|---0-x-0----0-x-0-|
G:---0-x-0----0-x-0-|---2-x-2----2-x-2-|---0-x-0----0-x-0-|
D:------------------|-3--------3-------|------------------|
A:------------------|------------------|------------------|
E:-0--------0-------|------------------|-0--------0-------|

   F (133211@1)                Ge:---1-x-1----1-x-1-|---3-x-3----3-x-3-| (320003@1)B:---1-x-1----1-x-1-|---3-x-3----3-x-3-| Repeat 
G:---2-x-2----2-x-2-|---0-x-0----0-x-0-| Once
D:-3--------3-------|------------------| More
A:------------------|------------------|
E:------------------|-3--------3-------|

   Ge:-3~---------------| (320003@1)B:-3~---------------|
G:-0~---------------|
D:-0~---------------|
A:-2~---------------|
E:-3~---------------|

Chorus: 

   C (x32010@1)                Em (022000@1)               Ame:---0-x-0----0-x-0-|---0-x-0----0-x-0-|---0-x-0----0-x-0-| (x02210@1)B:---1-x-1----1-x-1-|---0-x-0----0-x-0-|---1-x-1----1-x-1-|
G:---0-x-0----0-x-0-|---0-x-0----0-x-0-|---2-x-2----2-x-2-|
D:------------------|------------------|------------------|
A:-3--------3-------|------------------|-0--------0-------|
E:------------------|-0--------0-------|------------------|

   Em (022000@1)               F (133211@1)                Eme:---0-x-0----0-x-0-|---1-x-1----1-x-1-|---0-x-0----0-x-0-| (022000@1)B:---0-x-0----0-x-0-|---1-x-1----1-x-1-|---0-x-0----0-x-0-|
G:---0-x-0----0-x-0-|---2-x-2----2-x-2-|---0-x-0----0-x-0-|
D:------------------|-3--------3-------|------------------|
A:------------------|------------------|------------------|
E:-0--------0-------|------------------|-0--------0-------|

 1........                              2.........
   F (133211@1)                G (320003@1)                F (133211@1)      Ge:---1-x-1----1-x-1-|---3-x-3----3-x-3-|---1-x-1----3-x-3-| (320003@1)B:---1-x-1----1-x-1-|---3-x-3----3-x-3-|---1-x-1----3-x-3-|
G:---2-x-2----2-x-2-|---0-x-0----0-x-0-|---2-x-2----0-x-0-|
D:-3--------3-------|------------------|-3----------------|
A:------------------|------------------|------------------|
E:------------------|-3--------3-------|----------3-------|

   Ce:---0-x-1----0-x-0-| (x32010@1)B:---1-x-1----1-x-1-|
G:---0-x-0----0-x-0-|
D:------------------|
A:-3--------3-------|
E:------------------|

Solo:

e:-0-----------3-------|
B:-1-----1-3/5---5/3-1-|
G:-0---2---------------|
D:---------------------|
A:-3-------------------|
E:---------------------|

Bridge:

   Am (x02210@1)               Em (022000@1)               F (133211@1)      Ge:---0-x-0----0-x-0-|---0-x-0----0-x-0-|---1-x-1----3-x-3-| (320003@1)B:---2-x-2----2-x-2-|---0-x-0----0-x-0-|---1-x-1----3-x-3-|
G:---1-x-1----1-x-1-|---0-x-0----0-x-0-|---2-x-2----0-x-0-|
D:------------------|------------------|-3----------------|
A:-0--------0-------|------------------|------------------|
E:------------------|-0--------0-------|----------3-------|

   C (x32010@1)         Em/B (012000@1) Am (x02210@1)               Eme:---0-x-0--0~--0~--|---0-x-0----0-x-0-|---0-x-0----0-x-0-| (022000@1)B:---1-x-1--1~--1~--|---1-x-1----1-x-1-|---0-x-0----0-x-0-|
G:---2-x-2--2~--2~--|---2-x-2----2-x-2-|---0-x-0----0-x-0-|
D:------------------|------------------|------------------|
A:-3--------3~--2~--|-0--------0-------|------------------|
E:------------------|------------------|-0--------0-------|

   F (133211@1)                G (320003@1)                Ae:---1-x-1----1-x-1-|---3-x-3----3-x-3-|---0-x-0----0-x-0-| (x02220@1)B:---1-x-1----1-x-1-|---3-x-3----3-x-3-|---2-x-2----2-x-2-|
G:---2-x-2----2-x-2-|---0-x-0----0-x-0-|---2-x-2----2-x-2-|
D:-3--------3-------|------------------|------------------|
A:------------------|------------------|-0--------0-------|
E:------------------|-3--------3-------|------------------|

Last Chorus:

   D (xx0232@1)                F#m (244222@1)              Bme:---2-x-2----2-x-2-|---2-x-2----2-x-2-|---0-x-0----0-x-0-| (x24432@1)B:---3-x-3----3-x-3-|---2-x-2----2-x-2-|---2-x-2----2-x-2-|
G:---2-x-2----2-x-2-|---2-x-2----2-x-2-|---4-x-4----4-x-4-|
D:-0--------0-------|------------------|------------------|
A:------------------|------------------|-2--------2-------|
E:------------------|-2--------2-------|------------------|

   F#m (244222@1)              G (320003@1)                F#me:---2-x-2----2-x-2-|---3-x-3----3-x-3-|---2-x-2----2-x-2-| (244222@1)B:---2-x-2----2-x-2-|---3-x-3----3-x-3-|---2-x-2----2-x-2-|
G:---2-x-2----2-x-2-|---0-x-0----0-x-0-|---2-x-2----2-x-2-|
D:------------------|------------------|------------------|
A:------------------|------------------|------------------|
E:-2--------2-------|-3--------3-------|-2--------2-------|

  1.........                            2.........
   G (320003@1)                A (x02220@1)                G (320003@1)      Ae:---3-x-3----3-x-3-|---0-x-0----0-x-0-|---3-x-3----0-x-0-| (x02220@1)B:---3-x-3----3-x-3-|---2-x-2----2-x-2-|---3-x-3----2-x-2-|
G:---0-x-0----0-x-0-|---2-x-2----2-x-2-|---0-x-0----2-x-2-|
D:------------------|------------------|------------------|
A:------------------|-0--------0-------|----------0-------|
E:-3--------3-------|------------------|-3----------------|

Outro:

   D (xx0232@1)                A (x02220@1)      Bm (x24432@1)      G (320003@1)      F#me:---2-x-2----2-x-2-|---0-x-0----0-x-0-|---3-x-3----2-x-2-| (244222@1)B:---3-x-3----3-x-3-|---2-x-2----2-x-2-|---3-x-3----2-x-2-|
G:---2-x-2----2-x-2-|---2-x-2----4-x-4-|---0-x-0----2-x-2-|
D:-0--------0-------|------------------|------------------|
A:------------------|-0--------2-------|------------------|
E:------------------|------------------|-3--------2-------|

e:---3-x-3----0-x-0-|
B:---3-x-3----2-x-2-| Repeat 
G:---0-x-0----2-x-2-| Once
D:------------------| More
A:----------0-------|
E:-3----------------|

e:-2~---------------|
B:-3~---------------|
G:-2~---------------|
D:-0~---------------|
A:------------------|
E:------------------|

Please comment it, bad or good, both are welcome.. And please rate this~~
Thanks A Lot!!

Show more