• Song:

    Alleen En In Zijn Eentje

  • Artist:

    Harrie Jekkers

  • Album:

    Het verhaal achter de l...

Artiest:  Harrie Jekkers
Show:     Jekkers en Koos: Het verhaal achter de liedjes
Nummer:   Alleen en in zijn eentje

?         Het gelijk van de goudvis, 2002

Tab:      Alexander Westers
e-mail:   infernal_purge@hotmail.com

Stemming: Open G
d|
B|
G|
D|
G|
D|

Aantekening:
Het nummer is voor het eerst verschenen op de plaat
'Roltrap naar de maan' van Klein Orkest.
In de show Jekkers en Koos: Het verhaal achter de liedjes
zingt Harrie Jekkers een uitgebreidere versie van dit
nummer.
De tablatuur is van de versie uit de theatervoorstelling.

Legenda:
/  = slide omhoog
\  = slide omlaag
p  = pull off
?  = flageolet

Couplet 1:

Daar loopt-ie alleen, Alleen en in zijn eentje, Zijn lichaam nog kleiner
 G|----0--------0-----|----0--------0-----|----0--------0-----| (320003@1)|----0----------0---|----0----------0---|----0----------0---|
|-/4-----5--------0-|-/4-----5--------0-|-/4-----5--------0-|
|------0--------0---|------0--------0---|------0--------0---|
|--0--------0-------|--0--------0-------|--0--------0-------|
|-------------------|-------------------|-------------------|

Dan zijn tas
 C (x32010@1)           (G7)  C|----5--------5-----|----5--------5-----| (x32010@1)|----5---6------6---|----5---5------5---|
|--5------------7---|--5------------5---|
|------5--------5---|------5--------5---|
|--5--------5-------|--5--------5-------|
|-------------------|-------------------|

Daar loopt-ie alleen, Naar school in zijn eentje, Zijn wereld nog groter
 G|----0--------0-----|----0--------0-----|----0--------0-----| (320003@1)|----0----------0---|----0----------0---|----0----------0---|
|-/4-----5--------0-|-/4-----5--------0-|-/4-----5--------0-|
|------0--------0---|------0--------0---|------0--------0---|
|--0--------0-------|--0--------0-------|--0--------0-------|
|-------------------|-------------------|-------------------|

Dan zijn Bosatlas
 C (x32010@1)           (G7)  C|----5--------5-----|----5--------5-----| (x32010@1)|----5---5------6---|----5---5------5---|
|--5------------7---|--5--------------5-|
|------5--------5---|------5--------5---|
|--5--------5-------|--5----------------|
|-------------------|-----------5-------|

G|------------------------|----0--------0------| (320003@1)|------3----3\1p0--1p0---|--------0------0----|
|----4---4------------2--|--------0------0----|
|------0----------0------|------0--------0----|
|--0--------0------------|--0--------0-----0--|
|------------------------|--------------------|



Hij spreidt zijn jas tot vleugels
 Dadd6               C'
|-------------0-----|----0--------0-----|
|------0--------0---|------5--------5---|
|------2----------2-|--------5--------5-|
|------0--------0---|------0--------0---|
|--2--------2-------|-/5--------5-------|
|-------------------|-------------------|

En de wind neemt hem mee
 G"
|-----?12----------9-|--------9----------|
|-----?12------------|--------8----8-----|
|-----?12------0-----|----7--------7-----|
|----------------0---|------0--------0---|
|--0---------0-------|--0--------0-----0-|
|--------------------|-------------------|

Hij vliegt hoog boven het schoolplein
 Dadd6               C'
|-------------0-----|----0--------0-----|
|------0--------0---|------5--------5---|
|------2----------2-|--------5--------5-|
|------0--------0---|------0--------0---|
|--2--------2-------|-/5--------5-------|
|-------------------|-------------------|

En dan landt-ie, met -dt
 G"
|-----?12--------9---|--9----------------|
|-----?12------------|--8----------------|
|-----?12------0-----|--7----------------|
|----------------0---|-------------------|
|--0---------0-------|--0----------------|
|--------------------|-------------------|



Couplet 2:

Daar zit-ie alleen, Alleen en in zijn eentje, Naast het aquarium
 G|----0--------0-----|----0--------0-----|----0--------0-----| (320003@1)|----0----------0---|----0----------0---|----0----------0---|
|-/4-----5--------0-|-/4-----5--------0-|-/4-----5--------0-|
|------0--------0---|------0--------0---|------0--------0---|
|--0--------0-------|--0--------0-------|--0--------0-------|
|-------------------|-------------------|-------------------|

In de klas
 C (x32010@1)           (G7)  C|----5--------5-----|----5--------5-----| (x32010@1)|----5---6------6---|----5---5------5---|
|--5------------7---|--5--------------5-|
|------5--------5---|------5--------5---|
|--5--------5-------|--5--------5-------|
|-------------------|-------------------|

Daar zit-ie alleen, En schrijft met zijn vinger De naam van de mooiste
 G|----0--------0-----|----0--------0-----|----0--------0-----| (320003@1)|----0----------0---|----0----------0---|----0----------0---|
|-/4-----5--------0-|-/4-----5--------0-|-/4-----5--------0-|
|------0--------0---|------0--------0---|------0--------0---|
|--0--------0-------|--0--------0-------|--0--------0-------|
|-------------------|-------------------|-------------------|

Maanvis op het glas
 C (x32010@1)           (G7)  C|----5--------5-----|----5--------5-----| (x32010@1)|----5---5------6---|----5---5------5---|
|--5------------7---|--5--------------5-|
|------5--------5---|------5--------5---|
|--5--------5-------|--5----------------|
|-------------------|-----------5-------|

G|------------------------|----0--------0------| (320003@1)|------3----3\1p0--1p0---|--------0------0----|
|----4---4------------2--|--------0------0----|
|------0----------0------|------0--------0----|
|--0--------0------------|--0--------0-----0--|
|------------------------|--------------------|



De oefening die voor hem ligt
 Dadd6               C'
|-------------0-----|----0--------0-----|
|------0--------0---|------5--------5---|
|------2----------2-|--------5--------5-|
|------0--------0---|------0--------0---|
|--2--------2-------|-/5--------5-------|
|-------------------|-------------------|

Hij leest de eerste zin
 G"
|-----?12----------9-|-----------9-------|
|-----?12------------|-----------8-------|
|-----?12------0-----|----7------7-------|
|----------------0---|------0--------0---|
|--0---------0-------|--0--------0-----0-|
|--------------------|-------------------|

"Vul op elk stippellijntje
 Dadd6               C'
|-------------0-----|----0--------0-----|
|------0--------0---|------5--------5---|
|------2----------2-|--------5--------5-|
|------0--------0---|------0--------0---|
|--2--------2-------|-/5--------5-------|
|-------------------|-------------------|

Niet meer dan ??n woord in."
 G"
|-----?12--------9---|--9----------------|
|-----?12------------|--8----------------|
|-----?12------0-----|--7----------------|
|----------------0---|-------------------|
|--0---------0-------|--0----------------|
|--------------------|-------------------|



Couplet 3:

Daar loopt-ie alleen Naar huis in zijn eentje, Zijn lichaam nog kleiner
 G|----0--------0-----|----0--------0-----|----0--------0-----| (320003@1)|----0----------0---|----0----------0---|----0----------0---|
|-/4-----5--------0-|-/4-----5--------0-|-/4-----5--------0-|
|------0--------0---|------0--------0---|------0--------0---|
|--0--------0-------|--0--------0-------|--0--------0-------|
|-------------------|-------------------|-------------------|

Dan z'n tas
 C (x32010@1)           (G7)  C|----5--------5-----|----5--------5-----| (x32010@1)|----5---6------6---|----5---5------5---|
|--5------------7---|--5------------5---|
|------5--------5---|------5--------5---|
|--5--------5-------|--5--------5-------|
|-------------------|-------------------|

Daar loopt-ie alleen Te dromen in zijn eentje, De jongen die ik was
 G|----0--------0-----|----0--------0-----|----0--------0-----| (320003@1)|----0----------0---|----0----------0---|----0----------0---|
|-/4-----5----------|-/4-----5----------|-/4-----5----------|
|------0--------0---|------0--------0---|------0--------0---|
|--0--------0-------|--0--------0-------|--0--------0-------|
|-------------------|-------------------|-------------------|

Slot:
 G'''
|-------------?12-----|
|-------0----?12------|
|-----0-----?12-------|
|---0-------0---------|
|-0--------0----------|
|---------------------|



Vingerzettingen:

Legenda:
1   = wijsvinger
2   = middelvinger
3   = ringvinger
4   = pink

()  = versieringen
[]  = barr?akkoord, of ??n vinger voor verschillende snaren
^1^ = flageolet

G|o-----|-----|-----|-----|-----|-----|-----|-----|-----|-----|-----|-----|| (320003@1)|o-----|-----|-----|-----|-----|-----|-----|-----|-----|-----|-----|-----||
|o-----|-(///////////)1--|-(3)-|-----|-----|-----|-----|-----|-----|-----||
|o-----|-----|-----|-----|-----|-----|-----|-----|-----|-----|-----|-----||
|o-----|-----|-----|-----|-----|-----|-----|-----|-----|-----|-----|-----||
||-----|-----|-----|-----|-----|-----|-----|-----|-----|-----|-----|-----||
                *           *           *           *                * *

C (x32010@1)                              (G7)
||-----|-----|-----|-----|-[1]-|-----|-----|-----|-----|-----|-----|-----||
||-----|-----|-----|-----|-[1]-|-(2)-|-----|-----|-----|-----|-----|-----||
||-----|-----|-----|-----|-[1]-|-----|-(3)-|-----|-----|-----|-----|-----||
||-----|-----|-----|-----|-[1]-|-----|-----|-----|-----|-----|-----|-----||
||-----|-----|-----|-----|-[1]-|-----|-----|-----|-----|-----|-----|-----||
||-----|-----|-----|-----|-[1]-|-----|-----|-----|-----|-----|-----|-----||
                *           *           *           *                * *

G'
||-----|-----|-----|-----|-----|-----|-----|-----|-----|-----|-----|-----||
||-(1\\\\\\\\\\)1--|-----|-----|-----|-----|-----|-----|-----|-----|-----||
||-----|-(3)-|-----|--3--|-----|-----|-----|-----|-----|-----|-----|-----||
|o-----|-----|-----|-----|-----|-----|-----|-----|-----|-----|-----|-----||
|o-----|-----|-----|-----|-----|-----|-----|-----|-----|-----|-----|-----||
||-----|-----|-----|-----|-----|-----|-----|-----|-----|-----|-----|-----||
                *           *           *           *                * *

Dadd6
|o-----|-----|-----|-----|-----|-----|-----|-----|-----|-----|-----|-----||
|o-----|-----|-----|-----|-----|-----|-----|-----|-----|-----|-----|-----||
||-----|--3--|-----|-----|-----|-----|-----|-----|-----|-----|-----|-----||
|o-----|-----|-----|-----|-----|-----|-----|-----|-----|-----|-----|-----||
||-----|--2--|-----|-----|-----|-----|-----|-----|-----|-----|-----|-----||
||-----|-----|-----|-----|-----|-----|-----|-----|-----|-----|-----|-----||
                *           *           *           *                * *

C'
||-----|-----|-----|-----|-----|-----|-----|-----|-----|-----|-----|-----||
||-----|-----|-----|-----|--4--|-----|-----|-----|-----|-----|-----|-----||
||-----|-----|-----|-----|--3--|-----|-----|-----|-----|-----|-----|-----||
|o-----|-----|-----|-----|-----|-----|-----|-----|-----|-----|-----|-----||
||-----|-----|-----|-----|--2--|-----|-----|-----|-----|-----|-----|-----||
||-----|-----|-----|-----|-----|-----|-----|-----|-----|-----|-----|-----||
                *           *           *           *                * *

G"
||-----|-----|-----|-----|-----|-----|-----|-----|--4--|-----|-----|----^1^
||-----|-----|-----|-----|-----|-----|-----|--2--|-----|-----|-----|----^1^
||-----|-----|-----|-----|-----|-----|--1--|-----|-----|-----|-----|----^1^
|o-----|-----|-----|-----|-----|-----|-----|-----|-----|-----|-----|-----||
|o-----|-----|-----|-----|-----|-----|-----|-----|-----|-----|-----|-----||
||-----|-----|-----|-----|-----|-----|-----|-----|-----|-----|-----|-----||
                *           *           *           *                * *

G'''
||-----|-----|-----|-----|-----|-----|-----|-----|-----|-----|-----|----^1^
|o-----|-----|-----|-----|-----|-----|-----|-----|-----|-----|-----|----^1^
|o-----|-----|-----|-----|-----|-----|-----|-----|-----|-----|-----|----^1^
|o-----|-----|-----|-----|-----|-----|-----|-----|-----|-----|-----|-----||
|o-----|-----|-----|-----|-----|-----|-----|-----|-----|-----|-----|-----||
||-----|-----|-----|-----|-----|-----|-----|-----|-----|-----|-----|-----||
                *           *           *           *                * *

Show more