• Song:

    Every Lasting Scar

  • Artist:

    Hatebreed

hatebreed - every lasting scar 
tuning C# F# B# E# 


     
Intro:
E#|-------------------------------------------------------------|
B#|-------------------------------------------------------------|
F#|-------------------------------------------------------------|
C#|-0-0-0-0-0-0-0-0-0-0-0-0-0-0-0-0-0-0-0-0-0-0-----------------|
     
Chorus:
E#|--------------------------------------------------------|
B#|--------------------------------------------------------|
F#|-------------3--3--8--7--5--5-5-5-5-5-------------------|
C#|-0-0-0-0-0-0--------------------------3--3-3-3-3-1-3-0--|x4
      
Verse:
E#|---------------------------------------------------------|
B#|---------------------------------------------------------|
F#|------------------------------8--7--8--7--8~-------------|
C#|-0-0-0-0-0-0-3--6-0-0-0-0-0------------------0-0-3-1-3-0-|x4
     
pre-chorus
E#|-----------------------------------------------------------|
B#|-----------------------------------------------------------|
F#|-------------5--7----------5-7-10-10-10-10-10-5-5-5--5-5-5-|
C#|-0-0-0-0-0-0-------0-0-0-0---------------------------------|x2


chorus x4

verse x4

pre-chorus x2
      
Before Break:
E#|-------------------------------------------------------------|
B#|-------------------------------------------------------------|
F#|-------------------------------------------------------------|
C#|-0-0-0-0-0-0-0-0-0-0-0-0-0-0-0-0-0-0-0-0-0-0-0-0-0-0-0-0-0-0-|x1
        

E#|---------------------------------------------------|
B#|---------------------------------------------------|
F#|-7-7-7-7-7-7-7-7-7-7-7-7-7-7-7-7-7-7-7-7-7-7-7-7-7-|
C#|---------------------------------------------------|x1
            
                
Breakdown:
E#|-------------------------------------------------------|
B#|-------------------------------------------------------|
F#|-------------------------------------------------------|
C#|-0-0-0-0-6~---0-0-1-4-3-3---0-0-0-6~-0-6~-0-0-1-4-3-3--|x4
       
break x1

Chorus x4

Outro:
E#|---------------------------------------------------------|
B#|---------------------------------------------------------|
F#|------------------------------8--7--8--7--8--------------|
C#|-0-0-0-0-0-0-3--6-0-0-0-0-0------------------0-0-3-1-3-0-|

gotta be one of the best songs on the album

have fun i do :) 
big col
Show more