• Song:

    Anti-scene Posterchild

  • Artist:

    Havok In Hollywood

Anti-scene Posterchild Tab by Havok In Hollywood


heyhey guys this band/ song is sweeet!!

and this song isnt particularly hard, its just fast and starts to hurt ur wrist after awhile...

but i try!

Havok in HollyWood
Posterchild


e-----------------------------------------|
b-----------------------------------------|
g-----------------------------------------|
d-----------------------------------------|
a------------------------6-6-5-3----------|
E--5-3-0-6-5-0-5-3-0-6-5-6-6-5-3----------|

e----------------------------------------|
b----------------------------------------|
g----------------------------------------|
d-----------------------------8~x--------|
a-------------------------6-6-8~x--------|
E--5-3-0-6-5-0-5-3-0-6-5--6-6-8~x--------|

e----------------------------------------|
b----------------------------------------|
g----------------------------------------|
d----------------------------------------|
a-0-3-5-0-6-5-0-3-5-0-3-5-0-0-1-0--------|
E----------------------------------------|

e----------------------------------------|
b----------------------------------------|
g----------------------------------------|
d-------------------------7~~~-----------|
a-0-3-5-0-6-5-0-3-5-0-3-5-7~~~-----------|
E----------------------------------------|

e----------------------------------------|
b----------------------------------------|
g----------------------------------------|
d----------------------------------------|
a-0-3-5-0-6-5-0-3-5-0-3-5-0-0-1-0--------|
E-0-3-5-0-6-5-0-3-5-0-3-5-0-0-1-0--------|  repeat this last one a few times.
Show more