sponsored links
Nothing Can Stop Me Tab by Heavens To Betsy

Sorry the last one I submitted was wrong, I got mixed up with firefly. Any way this is the right one

e |-------------------------------------|
B |-------------------------------------|
G |-------------------------------------|
D |--5-5-5-5-5-5-5-5---8-8-8-8-8-8-8-8--|
A |--5-5-5-5-5-5-5-5---8-8-8-8-8-8-8-8--|
E |--3-3-3-3-3-3-3-3---6-6-6-6-6-6-6-6--|

Play this ^ during the Verses and the bridge

e |-----------------------|
B |-----------------------|
G |-----------------------|
D |----8-/-5-/------------|
A |----8-/-5-/------------|
E |----6-/-3-/------------| X4

Play this ^ during the Chorus (?And if U think?? Bit)
U can slide back up to the Bb5 if u want.
Show more
sponsored links
sponsored links